• Song:

    Shanghai

  • Artist:

    Andy Mckee

  • Album:

    Art of Motion

tuning EBDGBD

he has a capo on the 2nd fret of the 2nd thru 6th strings. i am tabbing the 2nd fret so
you play a note open on any of the upper 5 strings it will be a 2 not a 0, if you do see
0 on any of them except the high D i goofed and im sorry it should be a 2. this is NOT 
but it sounds close.

D---------------11-11-11\7-7-7-7p4--------------------------------------------|
B-------------2-------------------2------------------2------------------------|
G-----------2----------------------6-----2----------2-------2h11-----2h9------|
D---------5-------------------------4h5p4--2-------5-------2--------2---------|
B-------2---------------------------------2-------2---------------------------|
E-2-5-7--------------------------------------2-5-7------12-------10-----------|
repeat

D---0-----------------------0h4p0----------------------0-0-0-----------------|
B-5-----------------------5-------2h5-5----------------2---2-----------------|
G------2-----------------------------2-----------------2---7-----------------|
D------5-----------------------------------------------7---7-----------------|
B-----7---------2h5h7-7-7--------------------2h3h5-5-5-7---7-------2h5h7-7-7-|
E-7------2h7-7-7----------5-------------5-5-5----------7---2-7-7-7-----------|

D---0-0---------------0------------------------------------------------------|
B-5---2-------2--------------------------------------------------------------|
G-------2--------------------------------------------------------------------|
D-----------5-------2--------------------------------------------------------|
B-----5----3----x--2---x-----------------------------------------------------|
E-5-------3-----x-2----x-----------------------------------------------------|
repeat

D--------------7----------0---0-0---0--0--/5---p0------0---0-----------------|
B-------8br-----5---------2---2-2---2--2--/5---p2-2----2---2-----------------|
G----6h7---7p2---7p6-7p2--2---2-4p0-2--2-----2-----2-2-2---2-----------------|
D-------------------------5---5-5---4--2------2-----2--5---7-----------------|
B-------------------------3---3-3---5--5---------------3---5-----------------|
E--7-----------10--12-----2---3-3---2--2---------------3---5-----------------|
repeat

D-10----10-10-10------10----------7-0-0---0-7-0-5---5-5----------------------|
B-10----10----10------10----------6-6-6h8-8-5-5-6h8-8-5----------------------|
G-10h14-14----10h14---10h14-10h12-5-5-5---5-5-5-5---5-5----------------------|
D-10----10----10------10----------5-5-5---5-5-5-5---5-5----------------------|
B-10----10----10------10----------5-5-5---5-5-5-5---5-5----------------------|
E-10----10----10------10----------6-6-6---6-5-5-5---5-5----------------------|
repeat

D-0-0---0-0--0---0-0--7-12\11-7-7h9-9-7--3-0-0---0-0-0---0-0-----------------|
B-5-5/6-6-10-7h8-8-7--7-7-----7-7---7-7--3-3-3h5-5-5-5/7-7-2-----------------|
G-7-7---7-7--7---7-7--7-7-----7-7---7-7--3-3-3---3-4-4---2-2-----------------|
D-7-7---7-9--7---7-7--7-7-----7-7---7-7--3-3-3---3-3-3---2-2-----------------|
B-x-x---x-x--x---x-x--7-------7-7---7-7--3-3-3---3-3-3---2-2-----------------|
E-6-6---6-8--8---8-8--7-------7-7---7-7--3-3-3---3-3-3---2-2-----------------|

D-10----10-10-10------10----------3-0-0---0-0-0-0----------------------------|
B-10----10----10------10----------3-3-3h5-5-5-5-7----------------------------|
G-10h14-14----10h14---10h14-10h12-3-3-3---3-4-2-2----------------------------|
D-10----10----10------10----------3-3-3---3-3-5-7----------------------------|
B-10----10----10------10----------3-3-3---3-3-5-7----------------------------|
E-10----10----10------10----------3-3-3---3-3-5-7----------------------------|

---0-----------------------0h4p0----------------------0-0-0-------------------|
B-5-----------------------5-------2h5-5----------------2---2------------------|
G------2-----------------------------2-----------------2---7------------------|
D------5-----------------------------------------------7---7------------------|
B-----7---------2h5h7-7-7--------------------2h3h5-5-5-7---7-------2h5h7-7-7--|
E-7------2h7-7-7----------5-------------5-5-5----------7---2-7-7-7------------|

D---0-0---------------0------------------------------------------------------|
B-5---2-------2--------------------------------------------------------------|
G-------2--------------------------------------------------------------------|
D-----------5-------2--------------------------------------------------------|
B-----5----3----x--2---x-----------------------------------------------------|
E-5-------3-----x-2----x-----------------------------------------------------|
repeat

D--------------7----------0---0-0---0--0--/5---p0------0---0-----------------|
B-------8br-----5---------2---2-2---2--2--/5---p2-2----2---2-----------------|
G----6h7---7p2---7p6-7p2--2---2-4p0-2--2-----2-----2-2-2---2-----------------|
D-------------------------5---5-5---4--2------2-----2--5---7-----------------|
B-------------------------3---3-3---5--5---------------3---5-----------------|
E--7-----------10--12-----2---3-3---2--2---------------3---5-----------------|
repeat

D-10----10-10-10------10----------7-0-0---0-7-0-5---5-5----------------------|
B-10----10----10------10----------6-6-6h8-8-5-5-6h8-8-5----------------------|
G-10h14-14----10h14---10h14-10h12-5-5-5---5-5-5-5---5-5----------------------|
D-10----10----10------10----------5-5-5---5-5-5-5---5-5----------------------|
B-10----10----10------10----------5-5-5---5-5-5-5---5-5----------------------|
E-10----10----10------10----------6-6-6---6-5-5-5---5-5----------------------|
repeat

D-0-0---0-0--0---0-0--7-12\11-7-7h9-9-7--3-0-0---0-0-0---0-0-----------------|
B-5-5/6-6-10-7h8-8-7--7-7-----7-7---7-7--3-3-3h5-5-5-5/7-7-2-----------------|
G-7-7---7-7--7---7-7--7-7-----7-7---7-7--3-3-3---3-4-4---2-2-----------------|
D-7-7---7-9--7---7-7--7-7-----7-7---7-7--3-3-3---3-3-3---2-2-----------------|
B-x-x---x-x--x---x-x--7-------7-7---7-7--3-3-3---3-3-3---2-2-----------------|
E-6-6---6-8--8---8-8--7-------7-7---7-7--3-3-3---3-3-3---2-2-----------------|

D-10----10-10-10------10----------3-0-0---0-0-0-0----------------------------|
B-10----10----10------10----------3-3-3h5-5-5-5-7----------------------------|
G-10h14-14----10h14---10h14-10h12-3-3-3---3-4-2-2----------------------------|
D-10----10----10------10----------3-3-3---3-3-5-7----------------------------|
B-10----10----10------10----------3-3-3---3-3-5-7----------------------------|
E-10----10----10------10----------3-3-3---3-3-5-7----------------------------|

D-------(14)---7--------5------(14)---9--------------------------------------|
B-------(14)----5--------------(14)----7-------------------------------------|
G-------(14)-----7p2-6p2-------(14)-----9p2-8p2------------------------------|
D----------------------------------------------------------------------------|
B----------------------------------------------------------------------------|
E-4p2-x------5------------4p2-x----7-----------------------------------------|
play 3x

D-----------------------------------------------12----------------------------|
B---------------------------------------------12------------------------------|
G-----2-----------------------------------------------------------------------|
D-------4--hold notes pick harmonics on ----16--------------------------------|
B---5-------------------------------------17----------------------------------|
E-3-------------------------------------15------------------------------------|

like i said its not 100% but its sounds decently close...close enough to where if you
to you could figure out the exact placement and picking and whatnot by watching the video
listening to the song. have fun.
Show more