sponsored links
INTRODU??O: experimente descer a afina??o da 6?corda para R? (1 tom ) e ao
inv?s de fazer o acorde convencional, fa?a apenas uma pestana pegando
as cordas mais graves: D5 , A5 , E5 (que agora emitir? o som de R?).

1?parte:    F5 A5 G5 A5 A#5 A5 D5 G5 A5 A#5 C#5 D5  F5 A5 G5 A5 A#5 A5 D5 E5 F5 A5 G5 A5 A#5 A5 C#5 E5 
          
2?parte: s?o os mesmos acordes da 1? estrofe abaixo.


D5   D5    D5 
Somehow I know
    C5                D5
That things are gonna change
    C5                 G5
New boundaries on the way
             D5
Like never were before
G5                      D5
Find a meaning to your life
G5                       D5
Healing whispers of the angels
          A#5      A5
Bring the sunrise again


     F5       F5            A#5          C5 D5  
     New day shines, fallen angels will arise
        C5 A#5         C5   F5              C5
     Nova Era brings the ashes back to life
     F5        F5             A#5       C5     D5
     All over now, all the great and awful lies
     A#5     F5     D#5
     Angels will arise
             D5
      Back to life!

Introdu??o 2?parte


D5     D5      D5
Fresh winds of hope
    C5          D5
Has taken us ahead
  C5          G5
Forever is a place
                D5
You have to keep in mind
   G5                D5
No way to limit our goals
      G5            D5
We'll find a reason to believe
      A#5  A5
Facing Nova Era

 [refr?o]

 SOLO  

Oh! Come on! Arise!

 SOLO 2
G5                      D5
Find a meaning to your life
G5                D5
No way to limit our goals
G5                       D5
Healing whispers of the angels
          A#5      A5
Bring the sunrise again!


F5       F5                 A#5          C5 D5    
New day shines, fallen angels will arise
   C5 A#5         C5   F5             D#5    C5
Nova Era brings the ashes back to life
G5        G5          C5          D5   E5
All over now, sores in pain and awful lies
C5    D5 G5          F5           E5
Angels lead you through paradise 


     C5        D5               E5
Nova Era is a passage to your mind
    C5               B5            E5 
And forever you may find a better time
     C5             D5              G5       E5
Nova Era bring the angels back to life... Life!

____________________________________________________________________________________
Cifra e tablatura por Ant?nio Carlos Amaral.





Vers?o 2
-======-

Guitarra Kiko
                                                                           
E |  | ------------------- | ---------------- | ----------------- | ---------------- | 
B |  | --3---------------- | ---------------- | --3-------------- | ---------------- | 
G |  | --2---------------- | ---------------- | --2-------------- | ---------------- | 
D |  | --0---------------- | ---------------- | --0-------------- | ---------7------ | 
A |  | -----------3-7-5-5- | --8------7------ | -----------5--7-- | --8------4------ | 
E |  | -----------1-5-3-7- | --6------5------ | -----------3--5-- | --6------------- | 


                                                                           
------------------- | ---------------- | -------------------- | ---------------- | 
--3---------------- | ---------------- | --3----------------- | ---------------- | 
--2---------------- | ---------------- | --2----------------- | ---------------- | 
--0---------------- | ---------------- | --0----------------- | ---------------- | 
-----------3-7-5-7- | --8------7------ | -------2--3--7--5-7- | --8------4------ | 
-----------1-5-3-5- | --6------5------ | -------0--1--5--3-5- | --6------------- | 


                                                                    
--------------- | -------------------------- | ------------------------ | 
--------------- | -------------------------- | ------------------------ | 
--------------- | --10----------------10---- | --9----10----12----9---- | 
--------------- | --------------12---------- | ------------------------ | 
--7------------ | --------12---------------- | ------------------------ | 
--------------- | -------------------------- | ------------------------ | 


                                                                                
-------------------------- | ------------------------- | -------------------------- | 
-------------------------- | -------------------10---- | -------------------------- | 
--10----------------10---- | --9----10----12---------- | --10----------------10---- | 
--------------12---------- | ------------------------- | --------------12---------- | 
--------12---------------- | ------------------------- | --------12---------------- | 
-------------------------- | ------------------------- | -------------------------- | 


                                                                 
------------------------------------ | --------------------------- | 
------------------------------------ | ------------11--10--8--11-- | 
--9----10----12-9-10-12-14-10-12-14- | --15----------------------- | 
------------------------------------ | --------------------------- | 
------------------------------------ | --------------------------- | 
------------------------------------ | --------------------------- | 


                                                        
--------------------------- | --------------------------- | 
--10----------------6-8-10- | --11--------11--10--8--11-- | 
------------5--7--9-------- | --------------------------- | 
--------------------------- | --------------------------- | 
--------------------------- | --------------------------- | 
--------------------------- | --------------------------- | 


                                                            
------------------------------- | --------------------------- | 
--10----------------------8-10- | --11--------11--10--8--11-- | 
-------------------7-9-10------ | --------------------------- | 
------------7-8-10------------- | --------------------------- | 
------------------------------- | --------------------------- | 
------------------------------- | --------------------------- | 


                                                                               
------------------------- | ------------------------- | --15b-----15-13-15b------- | 
--10--------------------- | ------------------------- | -------------------------- | 
--------------9----10---- | --10b-----10-9-10-------- | -------------------------- | 
--------12--------------- | ------------------------- | -------------------------- | 
------------------------- | ------------------------- | -------------------------- | 
------------------------- | ------------------------- | -------------------------- | 


                                                                
 | ------------------------------- | ------------------------------ | 
 | ------------------------------- | ------------------------------ | 
 | *------------------------------ | ------------------------------ | 
 | *--7----------7--7----------7-- | --7----------7--7----------7-- | 
 | ---5--5-5-5-5-5--5--5-5-5-5-5-- | --4--4-4-4-4-4--4--4-4-4-4-4-- | 
 | ------------------------------- | ------------------------------ | 


                                                            
------------------------------ | ---------------------------- | 
------------------------------ | ---------------------------- | 
------------------------------ | ---------------------------- | 
--7----------7--7----------7-- | --5----------5--5--5--5--5-- | 
--5--5-5-5-5-5--5--5-5-5-5-5-- | --3--3-3-3-3-3--3--3--3--3-- | 
------------------------------ | ---------------------------- | 


                                                              
------------------------------ | ------------------------------ | 
------------------------------ | ------------------------------ | 
------------------------------ | ------------------------------ | 
--7----------7--7----------7-- | --5----------5------5------5-- | 
--5--5-5-5-5-5--5--5-5-5-5-5-- | --3--3-3-3-3-3--3-3-3--3-3-3-- | 
------------------------------ | ------------------------------ | 


                                                                          
-------------------------------------- | ---------------------------------- | 
-------------------------------------- | ---------------------------------- | 
-------------------------------------- | ---------------------------------- | 
--------8-8-7-7-8-8-------8-8-7-7-8-8- | ------7-7-5-5-7-7-----7-7-5-5-7-7- | 
--10-10-------------10-10------------- | --5-5-------------5-5------------- | 
-------------------------------------- | ---------------------------------- | 


                                                                          
-------------------------------------- | ---------------------------------- | 
-------------------------------------- | ---------------------------------- | 
-------------------------------------- | ---------------------------------- | 
--------8-8-7-7-8-8-------8-8-7-7-8-8- | ------7-7-5-5-7-7-----7-7-5-5-7-7- | 
--10-10-------------10-10------------- | --5-5-------------5-5------------- | 
-------------------------------------- | ---------------------------------- | 


                                                                          
-------------------------------------- | ---------------------------------- | 
-------------------------------------- | ---------------------------------- | 
-------------------------------------- | ---------------------------------- | 
--------8-8-7-7-8-8-------8-8-7-7-8-8- | ------7-7-5-5-7-7-----7-7-5-5-7-7- | 
--10-10-------------10-10------------- | --5-5-------------5-5------------- | 
-------------------------------------- | ---------------------------------- | 


                                                              
------------------- | -------------------- | -------------------- | 
------------------- | -------------------- | -------------------- | 
--3---------------- | --7--------9-------- | -------------------- | 
--1---------------- | --7--------7-------- | --10---------------- | 
------------------- | -------------------- | --8----------------- | 
------------------- | -------------------- | -------------------- | 


                                                              
-------------------- | -------------------- | ------------------- | 
-------------------- | -------------------- | ------------------- | 
-------------------- | -------------------- | ------------------- | 
--10---------------- | --3------------5---- | --7---------------- | 
--7----------------- | --1------------3---- | --5---------------- | 
-------------------- | -------------------- | ------------------- | 


                                                             
-------------------- | ------------------- | ------------------- | 
-------------------- | ------------------- | ------------------- | 
---------------5---- | ------------------- | ------------------- | 
--3------------3---- | ------------------- | --5---------------- | 
--1----------------- | --3---------------- | --3---------------- | 
-------------------- | --1---------------- | ------------------- | 


                                                            
-------------------------------------- | -------------------- | 
-------------------------------------- | -------------------- | 
-------------------------------------- | -------------------- | 
--10-10-10-10-8-8-8-8-7-7-7-7--------- | --10---------------- | 
------------------------------7-7-7-7- | --8----------------- | 
-------------------------------------- | -------------------- | 


                                                              
-------------------- | -------------------- | ------------------- | 
-------------------- | -------------------- | ------------------- | 
-------------------- | -------------------- | ------------------- | 
--10---------------- | --3------------5---- | --7---------------- | 
--7----------------- | --1------------3---- | --5---------------- | 
-------------------- | -------------------- | ------------------- | 


                                                                                
-------------------- | ------------------- | ------------------- | ------------------ | 
-------------------- | ------------------- | ------------------- | ------------------ | 
---------------5---- | ------------------- | ------------------- | ------------------ | 
--3------------3---- | ------------------- | --8---------------- | ------------------ | 
--1----------------- | --3---------------- | --6---------------- | ------------------ | 
-------------------- | --1---------------- | ------------------- | ------------------ | 


                                                                               
-------------------------- | ------------------------ | -------------------------- | 
-------------------------- | ------------------------ | -------------------------- | 
--10----------------10---- | --9----10----12----9---- | --10----------------10---- | 
--------------12---------- | ------------------------ | --------------12---------- | 
--------12---------------- | ------------------------ | --------12---------------- | 
-------------------------- | ------------------------ | -------------------------- | 


                                                                 
------------------------------------ | --------------------------- | 
------------------------------------ | ------------11--10--8--11-- | 
--9----10----12-9-10-12-14-10-12-14- | --15----------------------- | 
------------------------------------ | --------------------------- | 
------------------------------------ | --------------------------- | 
------------------------------------ | --------------------------- | 


                                                                              
--------------------------- | -------------------- | --------------------------- |  | 
--10----------------6-8-10- | --11---------------- | --15r-----15h13-20--------- |  | 
--------------5-7-9-------- | -------------------- | --------------------------* |  | 
--------------------------- | -------------------- | --------------------------* |  | 
--------------------------- | -------------------- | --------------------------- |  | 
--------------------------- | -------------------- | --------------------------- |  | 


                                                                
------------------------------- | ------------------------------- | 
------------------------------- | ------------------------------- | 
------------------------------- | ------------------------------- | 
--8----------8----------8------ | --8----------8----------8------ | 
--6--6-6-6-6-6--6-6-6-6-6--6-6- | --6--6-6-6-6-6--6-6-6-6-6--6-6- | 
------------------------------- | ------------------------------- | 


                                                
 | ---------------------------------------------- | 
 | ---------------------------------------------- | 
 | *--------------------------------------------- | 
 | *--12t0-10-12t10-0-12t0-10-12t10-0-10-12t10-0- | 
 | ---------------------------------------------- | 
 | ---------------------------------------------- | 


                                                                                
--------------------------------------- | --------------------------------------- | 
--------------------------------------- | --------------------------------------- | 
--------------------------------------- | --------------------------------------- | 
--12t0-8-12t8-0-12t0-8-12t8-0-8-12t8-0- | --12t0-7-12t7-0-12t0-7-12t7-0-7-12t7-0- | 
--------------------------------------- | --------------------------------------- | 
--------------------------------------- | --------------------------------------- | 


                                                                             
---------------------------------------- |  | ---------------------------------- | 
---------------------------------------- |  | ---------------------------------- | 
---------------------------------------* |  | ---------------------------------- | 
--12t0-4-12t4-0-12t0-4-12t4-0-4-12t4-0-* |  | --8t0-5-8t5-0-8t0-5-8t5-0-5-8t5-0- | 
---------------------------------------- |  | ---------------------------------- | 
---------------------------------------- |  | ---------------------------------- | 


                                                                           
---------------------------------- | --------------------------------------- | 
---------------------------------- | --------------------------------------- | 
---------------------------------- | --------------------------------------- | 
--7t0-4-7t4-0-7t0-4-7t4-0-4-7t4-0- | --10t0-7-10t7-0-10t0-7-10t7-0-7-10t7-0- | 
---------------------------------- | --------------------------------------- | 
---------------------------------- | --------------------------------------- | 


                                                                           
---------------------------------- | --------------------------------------- | 
---------------------------------- | --------------------------------------- | 
---------------------------------- | --------------------------------------- | 
--8t0-5-8t5-0-8t0-5-8t5-0-5-8t5-0- | --11t0-8-11t8-0-11t0-8-11t8-0-8-11t8-0- | 
---------------------------------- | --------------------------------------- | 
---------------------------------- | --------------------------------------- | 


                                        
--------------------------------------- | 
--------------------------------------- | 
--------------------------------------- | 
--12t0-7-12t7-0-12t0-7-12t7-0-7-12t7-0- | 
--------------------------------------- | 
--------------------------------------- | 


                                                         
-------------------------------------------------------- | 
-------------------------------------------------------- | 
-------------------------------------------------------- | 
--13t0-10-13t10-0-10-13t10-0-16t0-13-16t13-0-13-16t13-0- | 
-------------------------------------------------------- | 
-------------------------------------------------------- | 


                                                                              
-------------------------------------------------------- | --15b--------------- | 
-------------------------------------------------------- | --18b--------------- | 
-------------------------------------------------------- | -------------------- | 
--19t0-16-19t16-0-16-19t16-0-22t0-19-22t19-0-19-22t19-0- | -------------------- | 
-------------------------------------------------------- | -------------------- | 
-------------------------------------------------------- | -------------------- | 


                                                                           
--15b-------17b------- | ------------------17-18- | ------------------15------ | 
--18b-------20b------- | --20b------------------- | --20b---------15------15-- | 
---------------------- | ------------------------ | -------------------------- | 
---------------------- | ------------------------ | -------------------------- | 
---------------------- | ------------------------ | -------------------------- | 
---------------------- | ------------------------ | -------------------------- | 


                                                                         
--18b--------------- | --18---------------- | --17r---17-------------------- | 
-------------------- | -------------------- | ------------18---------------- | 
-------------------- | -------------------- | ----------------17--15--14r--- | 
-------------------- | -------------------- | ------------------------------ | 
-------------------- | -------------------- | ------------------------------ | 
-------------------- | -------------------- | ------------------------------ | 


                                                                      
---------------------------------- | ---------------------------------- | 
---------------------------------- | --15----------15------------18---- | 
--14------------------------------ | --15----------15---------15-17r17- | 
------15-------------------------- | --------17-17---------17---------- | 
----------17--15--13--12--13--15-- | ---------------------------------- | 
---------------------------------- | ---------------------------------- | 


                                                                            
--18-17-15---------------------------------------- | ------------------------ | 
-----------18-17-15-------15---------------------- | ------------------------ | 
--------------------18-17----18-17-15-17-15------- | --17b-------------10-12- | 
--------------------------------------------17-15- | ------------------------ | 
-------------------------------------------------- | ------------------------ | 
-------------------------------------------------- | ------------------------ | 


                                                   
-------------------------------------------------- | 
--10h11h10----------10-15h10----------15-14-11---- | 
-----------12-10-12----------12-10-12----------12- | 
-------------------------------------------------- | 
-------------------------------------------------- | 
-------------------------------------------------- | 


                                                   
-------------------------------------------------- | 
-------------------------------------------------- | 
-------------------------------------------------- | 
--------------------------------------12-12-12-12- | 
--10-10-10-10-12-12-12-12-13-13-13-13------------- | 
-------------------------------------------------- | 


                                                   
-------------------------------------------------- | 
--------------------------------------13-13-13-13- | 
--12-12-12-12-14-14-14-14-15-15-15-15------------- | 
-------------------------------------------------- | 
-------------------------------------------------- | 
-------------------------------------------------- | 


                                             
-------------------------------------------- | 
-------------------------------------------- | 
--10-9-7--------13-10-9---------14-13------- | 
---------10-9-7---------12-10-9-------15-14- | 
-------------------------------------------- | 
-------------------------------------------- | 


                                                                                
-------------------------------------------------- | ---------------------------- | 
-------------------------------------------------- | ---------------------------- | 
--16-14-13----------17-16-14----------19-16------- | --14----------------14--17-- | 
-----------15-14-12----------18-15-14-------18-15- | ----------------14---------- | 
-------------------------------------------------- | ------------15-------------- | 
-------------------------------------------------- | ---------------------------- | 


                                                        
---------------------------- | -------------------------- | 
---------------------------- | -------------------------- | 
--16--------------------16-- | --17b-----17-16-17-------- | 
--------------------18------ | -------------------------- | 
------------15--19---------- | -------------------------- | 
---------------------------- | -------------------------- | 


                                                                
---------------------------------- | ---------------------------- | 
--17--18------17------------------ | ---------------------------- | 
----------19------17--19--16--17-- | --14----------------14--17-- | 
---------------------------------- | ----------------14---------- | 
---------------------------------- | ------------15-------------- | 
---------------------------------- | ---------------------------- | 


                                                        
---------------------------- | -------------------------- | 
---------------------------- | -------------------------- | 
--16--------------------16-- | --17b-----17-16-17-------- | 
--------------------18------ | -------------------------- | 
------------15--19---------- | -------------------------- | 
---------------------------- | -------------------------- | 


                                                                        
-------------------------------------------------- | -------------------- | 
--18-17-------17---------------------------------- | -------------------- | 
--------10-19----20-19-17-19-17-------19-17------- | --19---------------- | 
--------------------------------19-17-------19-17- | -------------------- | 
-------------------------------------------------- | -------------------- | 
-------------------------------------------------- | -------------------- | 


                                                   
--17-18-15-18-15-18-17-15-13-17-15-13-12-15-13-12- | 
-------------------------------------------------- | 
-------------------------------------------------- | 
-------------------------------------------------- | 
-------------------------------------------------- | 
-------------------------------------------------- | 


                                                                             
--10-13-12-10-9-12-10-9-6-10-9-4-5-8-6-5- | ----6-5-----5--------------------- | 
----------------------------------------- | --8-----8-6---8-6-5-8-6-5---6-5--- | 
----------------------------------------- | --------------------------7-----7- | 
----------------------------------------- | ---------------------------------- | 
----------------------------------------- | ---------------------------------- | 
----------------------------------------- | ---------------------------------- | 


                                                                            
--------------------- | -------------------------- | -------------------------- | 
--8b-----8--6-------- | --13r-----13-11-15-------- | --17r-----17-15-18-------- | 
--------------------- | -------------------------- | -------------------------- | 
--------------------- | -------------------------- | -------------------------- | 
--------------------- | -------------------------- | -------------------------- | 
--------------------- | -------------------------- | -------------------------- | 


                                                                               
--19h14----19h14----19h14-17h14----17h14----17h14- | --------------------------- | 
--------16-------16-------------16-------16------- | --------------------------- | 
-------------------------------------------------- | --------------------------- | 
-------------------------------------------------- | --------------------------- | 
-------------------------------------------------- | --------10-----7-----9----- | 
-------------------------------------------------- | --0--0------0-----0-----0-- | 


                                                           
------------------------------ | --------------------------- | 
------------------------------ | --------------------------- | 
------------------------------ | --------------------------- | 
--------------------------4-5- | --------------------------- | 
--5-----7-----------3-5-7----- | --------10-----7-----9----- | 
-----0-----0--3-5-7----------- | --0--0------0-----0-----0-- | 


                                                    
----------------------- | --------------------------- | 
----------------------- | --------------------------- | 
--9/-7------5--7----9-- | --------------------------- | 
--9/-7------5--7----9-- | --------------------------- | 
----------------------- | --------10-----7-----9----- | 
----------------------- | --0--0------0-----0-----0-- | 


                                                                 
------------------------------------ | --------------------------- | 
------------------------------------ | --------------------------- | 
------------------------------------ | --------------------------- | 
--------------12-11-9--------------- | --------------------------- | 
--5-----7-------------12-10-9------- | --------10-----7-----9----- | 
-----0-----0------------------12-10- | --0--0------0-----0-----0-- | 


                                                    
----------------------- | --------------------------- | 
----------------------- | --------------------------- | 
--9/-7------5--7----9-- | --------------------------- | 
--9/-7------5--7----9-- | --------------------------- | 
----------------------- | --------10-----7-----9----- | 
----------------------- | --0--0------0-----0-----0-- | 


                                                           
------------------------------ | --------------------------- | 
------------------------------ | --------------------------- | 
------------------------------ | --------------------------- | 
--------------------------4-5- | --------------------------- | 
--5-----7-----------3-5-7----- | --------10-----7----------- | 
-----0-----0--3-5-7----------- | --0--0------0-------0-0-0-- | 


                                                                      
-------------------------- | ------------------------------------------ | 
-------------------------- | ------------------------------------------ | 
-------------------------- | ---------------8-10h8--------------8-10h8- | 
-------------------------- | --12h8----8h12---------------------------- | 
--------7------------7---- | -------10-------------12h8----8h12-------- | 
----0-0------0-0-0-0------ | ---------------------------10------------- | 


                                           
---------------8-10h8-10h8---------------- | 
------------------------------------------ | 
--12h8----8h12-------------12h8----8-12h8- | 
-------10-----------------------10-------- | 
------------------------------------------ | 
------------------------------------------ | 


                                                                              
-------------------------------------- | --------------6h8-6-8h6--------------- | 
--------------6-8h6-------------6-8h6- | -------------------------------------- | 
--10h7---7h10-------10h7---7h10------- | --10h7---7h10-----------10h7---7-10h7- | 
-------8-----------------8------------ | -------8---------------------8-------- | 
-------------------------------------- | -------------------------------------- | 
-------------------------------------- | -------------------------------------- | 


                                                                      
---------------------------------- | ------------4-6h4-6h4------------- | 
------------4-8h4-6h4------------- | ---------------------------------- | 
---------------------------------- | --8h5---5h8-----------8h5---5-8h5- | 
--8h5---5h8-----------8h5---5-8h5- | ------6-------------------6------- | 
------6-------------------6------- | ---------------------------------- | 
---------------------------------- | ---------------------------------- | 


                                         
------------5-8h5-12h8------------------ | 
-----------------------10--------------- | 
--9h5---5h9---------------9------------- | 
------7---------------------10---------- | 
-------------------------------12-11-10- | 
---------------------------------------- | 


                                          
----------------------------------------- | 
--------------------------10-12-13-15---- | 
------------------9-11-12---------------- | 
----------9-10-12------------------------ | 
--9-10-12-------------------------------- | 
----------------------------------------- | 


                                                                          
-------------------------------------- | ---------------------------------- | 
-------------------------------------- | ---------------------------------- | 
-------------------------------------- | ---------------------------------- | 
--------8-8-7-7-8-8-------8-8-7-7-8-8- | ------7-7-5-5-7-7-----7-7-5-5-7-7- | 
--10-10-------------10-10------------- | --5-5-------------5-5------------- | 
-------------------------------------- | ---------------------------------- | 


                                                                          
-------------------------------------- | ---------------------------------- | 
-------------------------------------- | ---------------------------------- | 
-------------------------------------- | ---------------------------------- | 
--------8-8-7-7-8-8-------8-8-7-7-8-8- | ------7-7-5-5-7-7-----7-7-5-5-7-7- | 
--10-10-------------10-10------------- | --5-5-------------5-5------------- | 
-------------------------------------- | ---------------------------------- | 


                                                                          
-------------------------------------- | ---------------------------------- | 
-------------------------------------- | ---------------------------------- | 
-------------------------------------- | ---------------------------------- | 
--------8-8-7-7-8-8-------8-8-7-7-8-8- | ------7-7-5-5-7-7-----7-7-5-5-7-7- | 
--10-10-------------10-10------------- | --5-5-------------5-5------------- | 
-------------------------------------- | ---------------------------------- | 


                                                              
------------------- | -------------------- | -------------------- | 
------------------- | -------------------- | -------------------- | 
------------------- | --7--------9-------- | -------------------- | 
--3---------------- | --7--------7-------- | --10---------------- | 
--1---------------- | -------------------- | --8----------------- | 
------------------- | -------------------- | -------------------- | 


                                                              
-------------------- | -------------------- | ------------------- | 
-------------------- | -------------------- | ------------------- | 
-------------------- | -------------------- | ------------------- | 
--10---------------- | --3--------5-------- | --7---------------- | 
--7----------------- | --1--------3-------- | --5---------------- | 
-------------------- | -------------------- | ------------------- | 


                                                             
-------------------- | ------------------- | ------------------- | 
-------------------- | ------------------- | ------------------- | 
-------------------- | ------------------- | ------------------- | 
--3--------5-------- | ------------------- | --8---------------- | 
--1--------3-------- | --3---------------- | --6---------------- | 
-------------------- | --1---------------- | ------------------- | 


                                                              
------------------- | -------------------- | -------------------- | 
------------------- | -------------------- | -------------------- | 
------------------- | -------------------- | -------------------- | 
--5---------------- | --12---------------- | --12---------------- | 
--3---------------- | --10---------------- | --9----------------- | 
------------------- | -------------------- | -------------------- | 


                                                              
-------------------- | ------------------- | -------------------- | 
-------------------- | ------------------- | -------------------- | 
-------------------- | ------------------- | -------------------- | 
--5------------7---- | --9---------------- | --5------------7---- | 
--3------------5---- | --7---------------- | --3------------5---- | 
-------------------- | ------------------- | -------------------- | 


                                                            
------------------- | -------------------- | ------------------ | 
--3---------------- | -------------------- | ------------------ | 
--0---------------- | -------------------- | ------------------ | 
--0---------------- | --10---------------- | ------------------ | 
------------------- | --8----------------- | ------------------ | 
--3---------------- | -------------------- | ------------------ | 


                                                      
-------------------------- | -------------------------- | 
-------------------------- | -------------------------- | 
--12----------------12---- | --11----12----14----11---- | 
--------------14---------- | -------------------------- | 
--------14---------------- | -------------------------- | 
-------------------------- | -------------------------- | 


                                                                  
-------------------------- | -------------------------------------- | 
-------------------------- | -------------------------------------- | 
--12----------------12---- | --11----12----14-11-12-14-16-12-14-16- | 
--------------14---------- | -------------------------------------- | 
--------14---------------- | -------------------------------------- | 
-------------------------- | -------------------------------------- | 


                                                                              
-------------------- | -------------------- | --12------------------------------- | 
--13---------------- | --15---------------- | --15b------------------------------ | 
--15b--------------- | --17b--------------- | ----------------------------------- | 
-------------------- | -------------------- | ----------------------------------- | 
-------------------- | -------------------- | --5h-7---------5h7---------5h7----- | 
-------------------- | -------------------- | -------0-0-0-0-----0-0-0-0-----0-0- | 


                                                                           
---------------------------------- | ------------------- | ------------------- | 
---------------------------------- | ------------------- | ------------------- | 
---------------------------------- | ------------------- | ------------------- | 
--9-9-7-7-5-5-4-4-5-5-4-4--------- | --5---------------- | --4---------------- | 
--------------------------7-7-5-5- | --3---------------- | --2---------------- | 
---------------------------------- | ------------------- | ------------------- | 


                                                                          
---------------------------------- | -------------------------------------- | 
---------------------------------- | -------------------------------------- | 
---------------------------------- | ------------------------------7-7-9-9- | 
---------------------------------- | ----------------7-7-9-9-10-10--------- | 
--5h7---------5h7---------5h7----- | --7-7-9-9-10-10----------------------- | 
------0-0-0-0-----0-0-0-0-----0-0- | -------------------------------------- | 


                                                            
------------------- | ------------------- | ------------------- | 
------------------- | ------------------- | --3---------------- | 
------------------- | ------------------- | --0---------------- | 
--5---------------- | --7---------------- | --0---------------- | 
--3---------------- | --5---------------- | ------------------- | 
------------------- | ------------------- | --3---------------- | 


                                                                          
---------------------------------- | ----------------12-11-8---------14-12- | 
--------------------12--15--14---- | ----12--13--15----------12-10-8------- | 
--12--------12--14---------------- | -------------------------------------- | 
------12-12----------------------- | -------------------------------------- | 
---------------------------------- | -------------------------------------- | 
---------------------------------- | -------------------------------------- | 


                                             
--11----------14-11-------12-------- | ------ |  | 
-----13-12-10-------13-------------- | ------ |  | 
-----------------------14----------- | ------ |  | 


           Angra                                       


Rafael
                                                                           
E |  | ------------------- | ---------------- | ----------------- | ---------------- | 
B |  | --3---------------- | ---------------- | --3-------------- | ---------------- | 
G |  | --2---------------- | ---------------- | --2-------------- | ---------------- | 
D |  | --0---------------- | ---------------- | --0-------------- | ---------7------ | 
A |  | -----------3-7-5-5- | --8------7------ | -----------5--7-- | --8------4------ | 
E |  | -----------1-5-3-7- | --6------5------ | -----------3--5-- | --6------------- | 


                                                                           
------------------- | ---------------- | -------------------- | ---------------- | 
--3---------------- | ---------------- | --3----------------- | ---------------- | 
--2---------------- | ---------------- | --2----------------- | ---------------- | 
--0---------------- | ---------------- | --0----------------- | ---------------- | 
-----------3-7-5-7- | --8------7------ | -------2--3--7--5-7- | --8------4------ | 
-----------1-5-3-5- | --6------5------ | -------0--1--5--3-5- | --6------------- | 


                                                                      
--------------- | -------------------------- | -------------------------- | 
--------------- | --10----------------10---- | --------10----11---------- | 
--------------- | --------------10---------- | --12----------------12---- | 
--------------- | --------12---------------- | -------------------------- | 
--7------------ | -------------------------- | -------------------------- | 
--------------- | -------------------------- | -------------------------- | 


                                                      
-------------------------- | -------------------------- | 
--10----------------10---- | --------10----11----13---- | 
--------------10---------- | --12---------------------- | 
--------12---------------- | -------------------------- | 
-------------------------- | -------------------------- | 
-------------------------- | -------------------------- | 


                                                                 
-------------------------- | ------------------------------------- | 
--10----------------10---- | --------10----11-8-10-11-13-10-11-13- | 
--------------10---------- | --12--------------------------------- | 
--------12---------------- | ------------------------------------- | 
-------------------------- | ------------------------------------- | 
-------------------------- | ------------------------------------- | 


                                                             
---------------------------- | ------------------------------- | 
--15--------15--13--11--15-- | --15------------------10-11-13- | 
---------------------------- | ------------9--10--12---------- | 
---------------------------- | ------------------------------- | 
---------------------------- | ------------------------------- | 
---------------------------- | ------------------------------- | 


                                                                  
---------------------------- | ------------------------------------ | 
--15--------15--13--11--15-- | --15--------------------------11-13- | 
---------------------------- | ---------------------10-12-14------- | 
---------------------------- | ------------10-12-14---------------- | 
---------------------------- | ------------------------------------ | 
---------------------------- | ------------------------------------ | 


                                                        
---------------------------- | -------------------------- | 
--15--------15--13--11--15-- | --15----------------10---- | 
---------------------------- | --------10----12---------- | 
---------------------------- | -------------------------- | 
---------------------------- | -------------------------- | 
---------------------------- | -------------------------- | 


                                                    
-------------------------- | ------------------------ | 
--14------14-12-14-------- | --15------15--14-------- | 
-------------------------- | ------------------------ | 
-------------------------- | ------------------------ | 
-------------------------- | ------------------------ | 
-------------------------- | ------------------------ | 


                                                                
 | ------------------------------- | ------------------------------ | 
 | ------------------------------- | ------------------------------ | 
 | *------------------------------ | ------------------------------ | 
 | *--7----------7--7----------7-- | --7----------7--7----------7-- | 
 | ---5--5-5-5-5-5--5--5-5-5-5-5-- | --4--4-4-4-4-4--4--4-4-4-4-4-- | 
 | ------------------------------- | ------------------------------ | 


                                                            
------------------------------ | ---------------------------- | 
------------------------------ | ---------------------------- | 
------------------------------ | ---------------------------- | 
--7----------7--7----------7-- | --5----------5--5--5--5--5-- | 
--5--5-5-5-5-5--5--5-5-5-5-5-- | --3--3-3-3-3-3--3--3--3--3-- | 
------------------------------ | ---------------------------- | 


                                                              
------------------------------ | ------------------------------ | 
------------------------------ | ------------------------------ | 
------------------------------ | ------------------------------ | 
--7----------7--7----------7-- | --5----------5------5------5-- | 
--5--5-5-5-5-5--5--5-5-5-5-5-- | --3--3-3-3-3-3--3-3-3--3-3-3-- | 
------------------------------ | ------------------------------ | 


                                                   
-------------------------------------------------- | 
-------------------------------------------------- | 
-------------------------------------------------- | 
--------12-12-10-10-12-12-------12-12-10-10-12-12- | 
--10-10-------------------10-10------------------- | 
-------------------------------------------------- | 


                                               
---------------------------------------------- | 
---------------------------------------------- | 
---------------------------------------------- | 
------12-12-10-10-12-12-----12-12-10-10-12-12- | 
--5-5-------------------8-8------------------- | 
---------------------------------------------- | 


                                                   
-------------------------------------------------- | 
-------------------------------------------------- | 
-------------------------------------------------- | 
--------12-12-10-10-12-12-------12-12-10-10-12-12- | 
--10-10-------------------10-10------------------- | 
-------------------------------------------------- | 


                                               
---------------------------------------------- | 
---------------------------------------------- | 
---------------------------------------------- | 
------12-12-10-10-12-12-----12-12-10-10-12-12- | 
--8-8-------------------5-5------------------- | 
---------------------------------------------- | 


                                                   
-------------------------------------------------- | 
-------------------------------------------------- | 
-------------------------------------------------- | 
--------12-12-10-10-12-12-------12-12-10-10-12-12- | 
--10-10-------------------10-10------------------- | 
-------------------------------------------------- | 


                                                                   
---------------------------------------------- | ------------------- | 
---------------------------------------------- | ------------------- | 
---------------------------------------------- | --3---------------- | 
------12-12-10-10-12-12-----12-12-10-10-12-12- | --1---------------- | 
--8-8-------------------8-8------------------- | ------------------- | 
---------------------------------------------- | ------------------- | 


                                                               
-------------------- | -------------------- | -------------------- | 
-------------------- | -------------------- | -------------------- | 
--7--------9-------- | -------------------- | -------------------- | 
--7--------7-------- | --10---------------- | --10---------------- | 
-------------------- | --8----------------- | --7----------------- | 
-------------------- | -------------------- | -------------------- | 


                                                              
-------------------- | ------------------- | -------------------- | 
-------------------- | ------------------- | -------------------- | 
-------------------- | ------------------- | ---------------5---- | 
--3------------5---- | --7---------------- | --3------------3---- | 
--1------------3---- | --5---------------- | --1----------------- | 
-------------------- | ------------------- | -------------------- | 


                                                                               
------------------- | ------------------- | -------------------------------------- | 
------------------- | ------------------- | -------------------------------------- | 
------------------- | ------------------- | -------------------------------------- | 
------------------- | --5---------------- | --10-10-10-10-8-8-8-8-7-7-7-7--------- | 
--3---------------- | --3---------------- | ------------------------------7-7-7-7- | 
--1---------------- | ------------------- | -------------------------------------- | 


                                                               
-------------------- | -------------------- | -------------------- | 
-------------------- | -------------------- | -------------------- | 
-------------------- | -------------------- | -------------------- | 
--10---------------- | --10---------------- | --3------------5---- | 
--8----------------- | --7----------------- | --1------------3---- | 
-------------------- | -------------------- | -------------------- | 


                                                             
------------------- | -------------------- | ------------------- | 
------------------- | -------------------- | ------------------- | 
------------------- | ---------------5---- | ------------------- | 
--7---------------- | --3------------3---- | ------------------- | 
--5---------------- | --1----------------- | --3---------------- | 
------------------- | -------------------- | --1---------------- | 


                                                                  
------------------- | ------------------ | -------------------------- | 
------------------- | ------------------ | --10----------------10---- | 
------------------- | ------------------ | --------------10---------- | 
--8---------------- | ------------------ | --------12---------------- | 
--6---------------- | ------------------ | -------------------------- | 
------------------- | ------------------ | -------------------------- | 


                                                      
-------------------------- | -------------------------- | 
--------10----11---------- | --10----------------10---- | 
--12----------------12---- | --------------10---------- | 
-------------------------- | --------12---------------- | 
-------------------------- | -------------------------- | 
-------------------------- | -------------------------- | 


                                                                    
-------------------------------------- | ---------------------------- | 
--------10----11----10-11-13-10-11-13- | --15--------15--13--11--15-- | 
--12-------------12------------------- | ---------------------------- | 
-------------------------------------- | ---------------------------- | 
-------------------------------------- | ---------------------------- | 
-------------------------------------- | ---------------------------- | 


                                                     
------------------------------- | -------------------- | 
--15------------------10-11-13- | --15---------------- | 
--------------9-10-12---------- | -------------------- | 
------------------------------- | -------------------- | 
------------------------------- | -------------------- | 
------------------------------- | -------------------- | 


                                                            
-------------------------- |  | ------------------------------- | 
--10r-----10h8-13--------- |  | ------------------------------- | 
-------------------------* |  | ------------------------------- | 
-------------------------* |  | --8----------8----------8------ | 
-------------------------- |  | --6--6-6-6-6-6--6-6-6-6-6--6-6- | 
-------------------------- |  | ------------------------------- | 


                                                                                
------------------------------- |  | ---------------------------------------------- | 
------------------------------- |  | ---------------------------------------------- | 
------------------------------- |  | *--------------------------------------------- | 
--8----------8----------8------ |  | *--12t0-10-12t10-0-12t0-10-12t10-0-10-12t10-0- | 
--6--6-6-6-6-6--6-6-6-6-6--6-6- |  | ---------------------------------------------- | 
------------------------------- |  | ---------------------------------------------- | 


                                                                                
--------------------------------------- | --------------------------------------- | 
--------------------------------------- | --------------------------------------- | 
--------------------------------------- | --------------------------------------- | 
--12t0-8-12t8-0-12t0-8-12t8-0-8-12t8-0- | --12t0-7-12t7-0-12t0-7-12t7-0-7-12t7-0- | 
--------------------------------------- | --------------------------------------- | 
--------------------------------------- | --------------------------------------- | 


                                                                          
---------------------------------------- |  | ------------------------------- | 
---------------------------------------- |  | --8----------8----------8------ | 
---------------------------------------* |  | --7----------7----------7------ | 
--12t0-4-12t4-0-12t0-4-12t4-0-4-12t4-0-* |  | -----0-0-0-0----0-0-0-0----0-0- | 
---------------------------------------- |  | ------------------------------- | 
---------------------------------------- |  | ------------------------------- | 


                                                                   
------------------------------- | ---------------------------------- | 
--7----------7----------7------ | --10----------10----------10------ | 
--7----------7----------7------ | --7-----------7-----------7------- | 
-----0-0-0-0----0-0-0-0----0-0- | ------0-0-0-0-----0-0-0-0-----0-0- | 
------------------------------- | ---------------------------------- | 
------------------------------- | ---------------------------------- | 


                                                                   
------------------------------- | ---------------------------------- | 
--8----------8----------8------ | --14----------14----------14------ | 
--7----------7----------7------ | --12----------12----------12------ | 
-----0-0-0-0----0-0-0-0----0-0- | ------0-0-0-0-----0-0-0-0-----0-0- | 
------------------------------- | ---------------------------------- | 
------------------------------- | ---------------------------------- | 


                                                                          
---------------------------------- | -------------------------------------- | 
--15----------15----------15------ | -------------------------------------- | 
--10----------10----------10--0-0- | ------------------------------8-8-8-8- | 
------0-0-0-0-----0-0-0-0--------- | ----------7-7-7-7-10-10-10-10--------- | 
---------------------------------- | --9-9-9-9----------------------------- | 
---------------------------------- | -------------------------------------- | 


                                                                                
------------------------------------------ | ------------------------------------ | 
------------------------------------------ | ------------------------------------ | 
--11-11-11-11-8-8-8-8--------------------- | ------------7-7-8-8-7-7-----7-7----- | 
----------------------10-10-10-10-7-7-7-7- | --------8-8-------------8-8-----8-8- | 
------------------------------------------ | --10-10----------------------------- | 
------------------------------------------ | ------------------------------------ | 


                                                                        
------------------------------------ | ---------------------------------- | 
------------------------------------ | ---------------------------------- | 
------------7-7-8-8-7-7-----7-7----- | ----------5-5-7-7-5-5-----5-5----- | 
--------8-8-------------8-8-----8-8- | ------7-7-------------7-7-----7-7- | 
--10-10----------------------------- | --8-8----------------------------- | 
------------------------------------ | ---------------------------------- | 


                                                                        
---------------------------------- | ------------------------------------ | 
---------------------------------- | ------------------------------------ | 
----------5-5-7-7-5-5-----5-5----- | ----------10-10-----8-8-----7-7----- | 
------7-7-------------7-7-----7-7- | ------8-8-------8-8-----8-8-----8-8- | 
--8-8----------------------------- | --6-6------------------------------- | 
---------------------------------- | ------------------------------------ | 


                                                                              
---------------------------------- | ------------------- | ---------------------- | 
---------------------------------- | ------------------- | ---------------------- | 
----------7-7-----5-5-----3-3----- | ------------------- | ---------------------- | 
------5-5-----5-5-----5-5-----5-5- | --3---------------- | --10--------12-------- | 
--3-3----------------------------- | --1---------------- | --8---------9--------- | 
---------------------------------- | ------------------- | ---------------------- | 


                                                                          
------------------------------------ | ------------------------------------ | 
------------------------------------ | ------------------------------------ | 
------------7-7-8-8-7-7-----7-7----- | ------------7-7-8-8-7-7-----7-7----- | 
--------8-8-------------8-8-----8-8- | --------8-8-------------8-8-----8-8- | 
--10-10----------------------------- | --10-10----------------------------- | 
------------------------------------ | ------------------------------------ | 


                                                                      
---------------------------------- | ---------------------------------- | 
---------------------------------- | ---------------------------------- | 
----------5-5-7-7-5-5-----5-5----- | ----------5-5-7-7-5-5-----5-5----- | 
------7-7-------------7-7-----7-7- | ------7-7-------------7-7-----7-7- | 
--8-8----------------------------- | --8-8----------------------------- | 
---------------------------------- | ---------------------------------- | 


                                                                        
------------------------------------ | ---------------------------------- | 
------------------------------------ | ---------------------------------- | 
----------10-10-----8-8-----7-7----- | ----------8-8-----7-7-----5-5----- | 
------8-8-------8-8-----8-8-----8-8- | ------7-7-----7-7-----7-7-----7-7- | 
--6-6------------------------------- | --5-5----------------------------- | 
------------------------------------ | ---------------------------------- | 


                                             
-------------------------------------------- | 
-------------------------------------------- | 
--10-9-7--------13-10-9---------14-13------- | 
---------10-9-7---------12-10-9-------15-14- | 
-------------------------------------------- | 
-------------------------------------------- | 


                                                   
-------------------------------------------------- | 
-------------------------------------------------- | 
--16-14-13----------17-16-14----------19-16------- | 
-----------15-14-12----------18-15-14-------18-15- | 
-------------------------------------------------- | 
-------------------------------------------------- | 


                                                                      
---------------------------------- | ---------------------------------- | 
---------------------------------- | ---------------------------------- | 
---------------------------------- | ---------------------------------- | 
---------------------------------- | ---------------------------------- | 
---------------------------------- | ---------------------------------- | 
--5-5-5-5-5-5-5-5-5-5-5-5-5-5-5-5- | --4-4-4-4-4-4-4-4-4-4-4-4-4-4-4-4- | 


                                                        
---------------------------------- | -------------------- | 
---------------------------------- | -------------------- | 
---------------------------------- | -------------------- | 
---------------------------------- | -------------------- | 
---------------------------------- | --8--------7-------- | 
--1-1-1-1-1-1-1-1-1-1-1-1-1-1-1-1- | --6--------4-------- | 


                                                                      
---------------------------------- | ---------------------------------- | 
---------------------------------- | ---------------------------------- | 
---------------------------------- | ---------------------------------- | 
---------------------------------- | ---------------------------------- | 
---------------------------------- | ---------------------------------- | 
--5-5-5-5-5-5-5-5-5-5-5-5-5-5-5-5- | --4-4-4-4-4-4-4-4-4-4-4-4-4-4-4-4- | 


                                                        
---------------------------------- | -------------------- | 
------------------
Show more
sponsored links
sponsored links