• Song:

    Big Jet Plane

  • Artist:

    Angus And Julia Stone

Tuning:E a d g b e
(Standard)

[Verse/Chorus]

Guitar 1:

Palm mute
C# - A# - F
C# - A# - F
(As power Chords)


[Intro/chorus]

Guitar 2:
Clean electric guitar

  [Intro] x2

e|-----------------------------------------------------------------|
B|-6/9--6--9---1---2-----------6/9--6--9--4--2---------------------|
G|-----------------------------------------------------------------|
D|-----------------------------------------------------------------|
A|-----------------------------------------------------------------|
E|-----------------------------------------------------------------|


[Verse]
Guitar 1:

Palm mute
C# - A# - F
C# - A# - F - Ab
(As power Chords)

[Bridge]

C# and A#m, makes sure you don't use them as power chords, but in total.

       -C#-	       -A#-
e|------x---------------x----------------|
B|------x---------------x----------------|
G|------10--------------6----------------|
D|------11--------------8----------------|
A|------11--------------8----------------|
E|------9---------------6----------------|

Clean and no PM.

Then.....

e|---------------------------------------------------------------------------|
B|---6---6----6---6---6---6--------------------------------------------------|
G|----6---6----8---6---6---8----(repeat until verse part starts again)-------|
D|-----8---8--------8---8----------------------------------------------------|
A|---------------------------------------------------------------------------|
E|---------------------------------------------------------------------------|


-----------------------------------------------------------------------------
[Intro]

Guitar 1 and 2 together.

[Verse]
She said,

hello mister
Pleased to meet ya
I want to hold her,
I want to kiss her,
She smell the daisy,
She smell the daisy,
She drive me crazy,
She drive me crazy

[Chorus]
Gonna take her for a ride on a big jet plane 
Gonna take her for a ride on a big jet plane 
Gonna take her for a ride on a big jet plane 
hey, hey

[Verse]
Be my lover,
My lady river
But can i take ya,
Take ya higher

[Chorus]
Gonna take her for a ride on a big jet plane 
Gonna take her for a ride on a big jet plane 
Gonna take her for a ride on a big jet plane 
hey, hey

[Bridge]
Gonna hold you,
Gonna kissing my arms
Gonna take you,
Away from home

Gonna hold you,
Gonna kissing my arms
Gonna take you,
Away from home

[Chorus]
Gonna take her for a ride on a big jet plane 
Gonna take her for a ride on a big jet plane 
Gonna take her for a ride on a big jet plane 
hey, hey


| /  slide up
| \  slide down
| h  hammer-on
| p  pull-off
| ~  vibrato
| +  harmonic
| x  Mute note
===============================================================================
Show more