• Song:

    Mango Tree

  • Artist:

    Angus And Julia Stone

  • Album:

    Heart Full of Wine

Standard Tuning

Intro and Verse

e-----0---------------0-------------0-----------0-------------|
B----3----3----------3---3--------3--3-------3---3------------|
G-------------------------------------------------------------|
D-------------------------------------------------------------|
A-------------------------------------------------------------|
E-3-----------3--3----------3--3---------3-3--------3---------|

e-----0---------------0-------------0-----------0-------------|
B----3----3----------3---3--------3--3-------3---3------------|
G-------------------------------------------------------------|
D-------------------------------------------------------------|
A-------------------------------------------------------------|
E-0-----------0--0----------0--0---------0-0--------0---------|

Chorus

e-----0---------------0-------------0-----------0---------------|
B----3--3----------3---3--------3--3-------3---3----------------|
G---------------------------------------------------------------|
D---------------------------------------------------------------|
A--3-------3--2-------------2-----------------------------------|
E-------------------------------------------3-3-----------3-----|

e-----0---------------0-------------0-----------0--------------|
B----3--3----------3---3--------3--3-------3---3---------------|
G--------------------------------------------------------------|
D--------------------------------------------------------------|
A--3-------3-5--------------5----------------------------------|
E-------------------------------------------3-3-----------3----|
Show more