• Song:

    Mango Tree

  • Artist:

    Angus And Julia Stone

  • Album:

    Heart Full of Wine

Song: Mango Tree
Artist: Angus & Julia Stone
Tabbed by: Jacob Hughes
Tabbed for: Amy Mayhew



INTRO:
E|------0---------0---------0---------0--------------------------------| 
B|------3-3-------3-3-------3-3-------3-3------------------------------| 
G|----------0---------0---------0---------0----------------------------| 
D|---------------------------------------------------------------------| 
A|---------------------------------------------------------------------| 
E|---3---------3---------3---------3-----------------------------------| 

E|------0---------0---------0---------0-------------------------------|| 
B|------3-3-------3-3-------3-3-------3-3-----------------------------|| 
G|----------0---------0---------0---------0---------------------------|| 
D|--------------------------------------------------------------------||(x2)
A|--------------------------------------------------------------------|| 
E|---0---------0---------0---------0----------------------------------|| 



VERSE:
E|------0---------0---------0---------0--------------------------------| 
B|------3-3-------3-3-------3-3-------3-3------------------------------| 
G|----------0---------0---------0---------0----------------------------| 
D|---------------------------------------------------------------------| 
A|---------------------------------------------------------------------| 
E|---3---------3---------3---------3-----------------------------------| 

E|------0---------0---------0---------0-------------------------------|| 
B|------3-3-------3-3-------3-3-------3-3-----------------------------|| 
G|----------0---------0---------0---------0---------------------------|| 
D|--------------------------------------------------------------------|| 
A|--------------------------------------------------------------------||(x4)
E|---0---------0---------0---------0----------------------------------|| 

THEN:
(i said you do)
e|---0-0-----0-0---0-0----0-0-----0-0---0-0---0-0-------0-0------------| 
B|---3-3-----3-3---3-3----3-3-----3-3---3-3---3-3-------3-3------------| 
G|---------------------------------------------------------------------|
D|-------------------------------------0---0---------------------------|
A|--3----3-2----2---------------2----2---------------------------------|
E|---------------3-----3-3-----3------------3------3-3-----------------|



VERSE:
E|------0---------0---------0---------0--------------------------------| 
B|------3-3-------3-3-------3-3-------3-3------------------------------| 
G|----------0---------0---------0---------0----------------------------| 
D|---------------------------------------------------------------------| 
A|---------------------------------------------------------------------| 
E|---3---------3---------3---------3-----------------------------------| 

E|------0---------0---------0---------0-------------------------------|| 
B|------3-3-------3-3-------3-3-------3-3-----------------------------|| 
G|----------0---------0---------0---------0---------------------------|| 
D|--------------------------------------------------------------------|| 
A|--------------------------------------------------------------------||(x4)
E|---0---------0---------0---------0----------------------------------|| 

THEN:
(i said you do)
e|---0-0-----0-0---0-0----0-0-----0-0---0-0---0-0-------0-0-----------|| 
B|---3-3-----3-3---3-3----3-3-----3-3---3-3---3-3-------3-3-----------|| 
G|--------------------------------------------------------------------||
D|-------------------------------------0---0--------------------------||(x2)
A|--3----3-2----2---------------2----2--------------------------------||
E|---------------3-----3-3-----3------------3------3-3----------------||


SOLo:

E|--7-5/3-3----3p0-------------------------7h8--0-3-5-5s7-5-3h5p3------| 
B|----------------3p0--------------------------------------------------|
G|-------------------3p0-----------0-----------------------------------| 
D|-----------------------2p0--0h2--------------------------------------| 
A|---------------------------------------------------------------------| 
E|---------------------------------------------------------------------| 

    G                                    Em7 
E|--7-5/3-3----3p0-------------------------7h8--0-3-5-5s7-5-3h5p3------| 
B|----------------3p0--------------------------------------------------| 
G|-------------------3p0-----------0-----------------------------------| 
D|-----------------------2p0--0h2--------------------------------------| 
A|---------------------------------------------------------------------| 
E|---------------------------------------------------------------------| 

   
E|-2-2h3---------2-2h3----------2-2h3--------------0-0-----------------| 
B|--------0-0h1---------1-1h3----------1-3--3------3-3----------then---| 
G|---------------------------------------------0---------------repeat--| 
D|-------------------------------------------------------------first---| 
A|-------------------------------------------------------------verse---| 
E|-----------------------------------------------------3---------------|


LYRICS (with chords):

-not correct but they go alright-

[G]I wish I had a mango tree
[Em]In my backyard
[G]With you standin next to me
[Em}Take the picture
[G]From her lips I heard her say
[Em]Can I have you
[G]Call her up oh what to say

[Em]I said you do
I said you [C]do [B] [G]
I said you [C]do [D] [G]

[G]Through my eyes I can see
[Em]A shooting star
[G]Weavn it's way across the sea
[Em]Somewhere from mars
[G]It's down the street we would run
[Em]To scratch our names in the park
[G]Young and free in the sun
[Em]Wheels upon the tar

I said you [C]do [B] [G]
I said you [C]do [D] [G]
I said you [C]do [B] [G]
I said you [C]do [D] [G]

(SOLO)

[G] [G] [Em] [Em] (x2)
[C] [B] [G]  [C] [D] [G] [G]

[G]I wish I had a mango tree
[Em]In my backyard
[G]With you standin next to me
[Em}Take the picture
[G]From her lips I heard her say
[Em]Can I have you
[G]Call her up oh what to say

I said you [C]do [B] [G]
I said you [C]do [D] [G]

06/08/2010
Show more