This is the tapping sequence as explained in one of his videos, I changed it to match a 
6 string guitar (normal tuning, drop D), enjoy!

e|-----------------------------------------------------------|
B|-----------------------------------------------------------|
G|-----------------------------------------------------------|
D|-----------------------------------------------------------|
A|------------------------------------------7h--9h--t14--t16-|
D|-2h--4h--t9--t11--9h--11h--12h--t14--t16-------------------|


e|----------------------------------------------------------|
B|----------------------------------------------------------|
G|--------------------------9h--11h--12h--t16--t18----------|
D|--9h--11h--12h--t14--t16----------------------------------|
A|----------------------------------------------------------|
D|----------------------------------------------------------|


e|--------------------------12h--14h--15h--t19--t21---------|
B|-12h--14h--15h--t17--t19----------------------------------|
G|----------------------------------------------------------|
D|----------------------------------------------------------|
A|----------------------------------------------------------|
D|----------------------------------------------------------|
Show more