Since Apocalyptica doesn't have a bass this is something you can play along
with the song.  It may not be perfect but its close. This is my first tab so
let me know what you think or any changes you think would be good.  Enjoy!

Standard Tuning EADG
In the chorus it is 10th fret on E string.  


Verse 1
|----------------------------------------------------------------------------|
|------------------------------------------8877-----8877------8070-----8070--|
|-6~4~---------66--44--88--88--66--44--55-------55--------33-------33--------|
|------11--11----------------------------------------------------------------|

|---------------------------------------------------|
|-----8877-----8877------8070-----8877--------------|
|-55--------55--------33-------55--------7~--8~-----|
|---------------------------------------------------|

Chorus 1
|---------------------------------------------------|
|---------------------------------------------------|
|------------------888888810------------------------|
|-1010101010101012------------55555555-66666666-5---|

|---------------------------------------------------|
|---------------------------------------------------|
|------------------888888810------------------------|
|-1010101010101012------------55555555-66666666--1~-|

Verse 2
|---------------------------------------------------|
|---------------------------------------------------|
|-6~-4~---55--5-55--5-33--3--------55--55--5-55--55-|
|---------------------------66--6-------------------|

|---------------------------------------------|
|---------------------------------------------|
|-55--5-55--33--33--3-33-----------------3~-4~|
|-------------------------66--66--6-66--------|

Chorus 2
|---------------------------------------------------|
|---------------------------------------------------|
|------------------888888810------------------------|
|-1010101010101012------------55555555-66666666-5---|

|---------------------------------------------------|
|---------------------------------------------------|
|------------------888888810------------------------|
|-1010101010101012------------55555555-66666666-5---|

Bridge
|----------------------------------------------------|
|----------------------------------------------------|
|-------------------88888888-------------------------|
|-1010101010101010-------------66666666-33333333-5---|

|----------------------------------------------------|
|----------------------------------------------------|
|-------------------88888888------------33333333-5~--|
|-1010101010101010-------------66666666--------------|

REST DURING INSTRAMENTAL

Outro (Repeat Till End of Song)
|---------------------------------------------------|
|---------------------------------------------------|
|------------------888888810------------------------|
|-1010101010101012------------55555555-66666666-5---|

|---------------------------------------------------|
|---------------------------------------------------| 
|------------------888888810------------------------|
|-1010101010101012------------55555555-66666666-5---|
Show more