Apocalyptica
I'm Not Jesus

Tuning B F# B E G# C#

verse
|------------------|
|------------------|
|------------------|
|-0-2-2-22-02-2-2b-|

pre-chorus
|----------------------------|
|----------------------------|
|---------14b-----------14b--|
|----------------------------|
|----------------------------|
|-5/7777--------5/7777-------|

chorus
|-----------------|
|-----------------|
|-----7---5-------|
|-2---7---5---7-9-|
|-2---5---3---7-9-|
|-2-----------7-9-|

bridge
|-----------------|
|-----------------|
|-----------------|
|-2---5---2---9---|
|-2---5---2---9---|
|-2---5---2---9---|
Show more