• Song:

    City With No Children

  • Artist:

    Arcade Fire

  • Album:

    The Suburbs

City With No Children - Arcade Fire

Tuning: Standard

G|----------------------|
D|--4-9-4-9-9-9-4-9-4---| x3
A|----------------------|
E|----------------------|

G|-----------------------------------|
D|------4-4-4-----------------6-6-6--| x2
A|--2-2-------4-4-4-2-2-6-6-6--------|
E|-----------------------------------|

G|----------------------|
D|--4-9-4-9-9-9-4-9-4---| x2
A|----------------------|
E|----------------------|

G|-----------------------------------|
D|------4-4-4-----------------6-6-6--| x2
A|--2-2-------4-4-4-2-2-6-6-6--------|
E|-----------------------------------|

G|----------------------|
D|--4-9-4-9-9-9-4-9-4---| x2
A|----------------------|
E|----------------------|

G|-----------------------------------|
D|------4-4-4-----------------6-6-6--| x2
A|--2-2-------4-4-4-2-2-6-6-6--------|
E|-----------------------------------|

G|----------------------|
D|--4-9-4-9-9-9-4-9-4---| x2
A|----------------------|
E|----------------------|

G|----------------------   -------------------------|
D|----------------------   -------------------------|
A|--9-9-9-9-\-2-2-/-9-9-x3 ---4-4-2-2-6-6-11-11-11--|
E|----------------------   -------------------------|

G|----------------------|
D|--4-9-4-9-9-9-4-9-4---| x2
A|----------------------|
E|----------------------|

G|-----------------------------------|
D|------4-4-4-----------------6-6-6--| x2
A|--2-2-------4-4-4-2-2-6-6-6--------|
E|-----------------------------------|




G|----------------------|
D|--4-9-4-9-9-9-4-9-4---|
A|----------------------|
E|----------------------|

G|-----------------------------------|
D|------4-4-4-----------------6-6-6--| x2
A|--2-2-------4-4-4-2-2-6-6-6--------|
E|-----------------------------------|

G|----------------------|
D|--4-9-4-9-9-9-4-9-4---|
A|----------------------|
E|----------------------|

G|----------------------   -------------------------|
D|----------------------   -------------------------|
A|--9-9-9-9-\-2-2-/-9-9-x3 ---4-4-2-2-6-6-11-11-11--|
E|----------------------   -------------------------|

G|----------------------|
D|--4-9-4-9-9-9-4-9-4---|
A|----------------------|
E|----------------------|

G|----------------------   -------------------------|
D|----------------------   -------------------------|
A|--9-9-9-9-\-2-2-/-9-9-x3 ---4-4-2-2-6-6-11-11-11--|
E|----------------------   -------------------------|

G|----------------------|
D|--4-9-4-9-9-9-4-9-4---| x3
A|----------------------|
E|----------------------|

Comment if you have any suggestions of catch any mistakes or just want to comment thanks!

| /  slide up
| \  slide down
| h  hammer-on
| p  pull-off
| ~  vibrato
| +  harmonic
| x  Mute note
===============================================================================
Show more