• Song:

    Neighborhood 1 Tunnels

  • Artist:

    Arcade Fire

----------------------------------------------------
 BASS TAB   NEIGHBORHOOD #1 (TUNNELS) - ARCADE FIRE
----------------------------------------------------

Tabbed By: Sansabelt
Tuning: Standard

Bass comes in at 0:25

G|----------------------------------------22223333|
D|3-3-3-3-3-3-2-2-3-3-3-3-3-3-2-2-0-0-0-0---------|
A|------------------------------------------------|
E|------------------------------------------------|
  And if the snow…

G|--------------------------------|
D|3-3-3-3-3-3-3-333-3-3-3-3-3-3-3-|
A|--------------------------------|
E|--------------------------------|

G|----------------------------------------22223333|
D|3-3-3-3-3-3-2-2-3-3-3-3-3-3-2-2-0-0-0-0---------|
A|------------------------------------------------|
E|------------------------------------------------|
  And if my parents…

G|------------------------22223333|
D|3-3-3-3-3333----00000000--------|
A|------------0033----------------|
E|--------------------------------|
          Yeah a tunnel…

G|--------------------------------|
D|33333333333333333333333333333222|
A|--------------------------------|
E|--------------------------------|

G|----------------------------------------22223333|
D|3333333333332222333333333333222200000000--------|
A|------------------------------------------------|
E|------------------------------------------------|
  You climb out…

G|----------------|
D|3333333333333333|
A|----------------|
E|----------------|

G|----------------------------------------22223333|
D|3333333333332222333333333333222200000000--------|
A|------------------------------------------------|
E|------------------------------------------------|
  And since…

G|------------------------22223333|
D|333333333333----00000000--------|
A|------------0033----------------|
E|--------------------------------|
          Then my skin…
 
  CHORUS 

G|------------2222------------2222|
D|333333333333----333333333333----|
A|--------------------------------|
E|--------------------------------|
  You change…

G|--------------------------------|
D|00000000000022220000000000002222|
A|--------------------------------|
E|--------------------------------|
  As the day…
         
G|--------------------------------|
D|--------------------------------|
A|3333333333333333/13-x16---------|
E|--------------------------------|


That's pretty much it, just repeat these bits. Enjoy!
Show more