Transcribed by Brett Vivian.
I'm doing this because the other tab for this is rubbish.

1:57


E------------------------------------------------|
B------------------------------------------------|
G---11-11-----13-13-11-11-----13-13-11-11--------| 
D--------11-11-----------11-11-----------11-11---|
A------------------------------------------------|
D------------------------------------------------|

E--------------------------------------------------------|
B--------------------------------------------------------|
G---11-11-----13-13-11-11-----13-13-11-11-----11-11------| 
D--------11-11-----------11-11-----------11-11-----11-11-|
A--------------------------------------------------------|
D--------------------------------------------------------|

E------------------------------------------------|
B------------------------------------------------|
G---------14-14-11-11-----14-14-11-11-----11-11--| 
D----12-12-----------12-12-----------12-12-------|
A------------------------------------------------|
D------------------------------------------------|

E--------------------------------------------------------------|
B--------------------------------------------------------------|
G---------14-14-11-11-----14-14-11-11-----11-11-----11-11------| 
D----12-12-----------12-12-----------12-12-----12-12-----12-12-|
A--------------------------------------------------------------|
D--------------------------------------------------------------|


E------------------------------------------------|
B------------------------------------------------|
G---------------14-14----------14-14-------------| 
D----------11-11----------11-11----------11-11---|
A-----12-12----------12-12----------12-12--------|
D------------------------------------------------|

E-------------------------------------------------------------|
B-------------------------------------------------------------|
G---------------14-14----------14-14--------------------------| 
D----------11-11----------11-11----------11-11-----11-11------|
A-----12-12----------12-12----------12-12-----12-12-----12-12-|
D-------------------------------------------------------------|

E------------------------------------------------|
B------------------------------------------------|
G---------------13-13----------13-13-------------| 
D----------11-11----------11-11----------11-11---|
A-----11-11----------11-11----------11-11--------|
D------------------------------------------------|

E-------------------------------------------------------------|
B-------------------------------------------------------------|
G---------------13-13----------13-13--------------------------| 
D----------11-11----------11-11----------11-11-----11-11------|
A-----11-11----------11-11----------11-11-----11-11-----11-11-|
D-------------------------------------------------------------|

E------------------------------------------------|
B------------------------------------------------|
G---11-11-----13-13-11-11-----13-13-11-11--------| 
D--------11-11-----------11-11-----------11-11---|
A------------------------------------------------|
D------------------------------------------------|

E--------------------------------------------------------|
B--------------------------------------------------------|
G---11-11-----13-13-11-11-----13-13-11-11-----11-11------| 
D--------11-11-----------11-11-----------11-11-----11-11-|
A--------------------------------------------------------|
D--------------------------------------------------------|

E------------------------------------------------|
B------------------------------------------------|
G---------14-14-11-11-----14-14-11-11-----11-11--| 
D----12-12-----------12-12-----------12-12-------|
A------------------------------------------------|
D------------------------------------------------|

E--------------------------------------------------------------|
B--------------------------------------------------------------|
G---------14-14-11-11-----14-14-11-11-----11-11-----11-11------| 
D----12-12-----------12-12-----------12-12-----12-12-----12-12-|
A--------------------------------------------------------------|
D--------------------------------------------------------------|


E------------------------------------------------|
B------------------------------------------------|
G---------------14-14----------14-14-------------| 
D----------11-11----------11-11----------11-11---|
A-----12-12----------12-12----------12-12--------|
D------------------------------------------------|

E-------------------------------------------------------------|
B-------------------------------------------------------------|
G---------------14-14----------14-14--------------------------| 
D----------11-11----------11-11----------11-11-----11-11------|
A-----12-12----------12-12----------12-12-----12-12-----12-12-|
D-------------------------------------------------------------|

2:17

       PM..........Slowly release..
E---------------------------------------------------------12~--|
B-----------------------------------------------12------12-----|
G---13-13-13-13-13-13-13---------------------14------14--------| 
D---11-11-11-11-11-11-11-/-/-/-/-/-/-/-/-/---------------------|
A---11-11-11-11-11-11-11---------------------------------------|
D--------------------------------------------------------------|

E-------------12~----------------------------------------------|
B----12-----12-------12----------------------------------------|
G--14-----14-------14---14~~--------14-------------------------|
D--------------------------------------------------------------|
A--------------------------------------------------------------|
D--------------------------------------------------------------|

And so on. The rest of the solo is easy to work out. Have fun.
Show more