• Song:

    D Is For Dangerous

  • Artist:

    Arctic Monkeys

  • Album:

    Favourite Worst Nightma...

-------------------------------------------------------------------------------
			     D is for Dangerous
-------------------------------------------------------------------------------

Tabbed By : Kevin
Tuning: Standard

0:00
G|-----------------|
D|-10~~~-----------|
A|-----------------|
E|-----------------|

0:06
G|--------------------------------------------------------------------------|
D|---------5--5--8-10-10-10-8--5--5-------------5--5--8-10-10-10-8-5--5-----|x2
A|-3-3-3-6---------------------------6\-3-3-3-6--------------------------6\-|
E|--------------------------------------------------------------------------|

0:19
G|----------------------------------------------------------------|
D|----------------------------------------------------------------|
A|-8-8-8-8-8--6----8-8-8-8-8--6----------6-9--9--9------6-9--9--9-|
E|---------------8---------------8-8--8------------8--8-----------|

G|-------------------------------------------------------|
D|-------------------------------------------------------|
A|-8-8-8-8-8--6----8-8-8-8-8--6---------6----------------|
E|---------------8---------------8-8--8---6--6-6-4--4--3-|

0:33
G|--------------------------------------------------------------------------|
D|---------5--5--8-10-10-10-8--5--5-------------5--5--8-10-10-10-8-5--5-----|
A|-3-3-3-6---------------------------6\-3-3-3-6--------------------------6\-|
E|--------------------------------------------------------------------------|

0:39
G|---------------------------------------|
D|---------5--5--8-10-10-10-8-5--5-------|
A|-3-3-3-6--------------------------6\-3-|
E|---------------------------------------|

0:46
G|--------------------------------------------------------------------------|
D|---------5--5--8-10-10-10-8--5--5-------------5--5--8-10-10-10-8-5--5-----|x4
A|-3-3-3-6---------------------------6\-3-3-3-6--------------------------6\-|
E|--------------------------------------------------------------------------|

1:12
G|-----------------------------------------------------------------|
D|---------5--5----------------------------5--5--------------------|x4
A|-3-3-3-6---------3-3-3-----------3-3-3-6---------3-3-3-----------|
E|---------------6-------6-3--3--6---------------6-------6-3--3--6-|

1:39
G|----------------------------------------------------------8-/12--10--8-|
D|---------5--5----------------------------5--5--8-10-10-10--------------|
A|-3-3-3-6---------3-3-3-----------3-3-3-6-------------------------------|
E|---------------6-------6-3--3--6---------------------------------------|

1:45
G|----------------------------------------------------------------|
D|----------------------------------------------------------------|x2
A|-8-8-8-8-8--6----8-8-8-8-8--6----------6-9--9--9------6-9--9--9-|
E|---------------8---------------8-8--8------------8--8-----------|

1:59
G|----------------------------------------------------------------------------------|
D|----------------------------------------------------------------------------------|
A|-8-8-8-8-8--6----8-8-8-8-8--6----------6-9--9--9------6-9--9--9--9--9--9--9--9--9-|
E|---------------8---------------8-8--8------------8--8-----------------------------|

G|-------------------------------------------------------|
D|-------------------------------------------------------|
A|-8-8-8-8-8--6----8-8-8-8-8--6---------6----------------|
E|---------------8---------------8-8--8---6--6-6-4--4--3-|

| /  slide up
| \  slide down
| h  hammer-on
| p  pull-off
| ~  vibrato
| +  harmonic
| x  Mute note
===============================================================================
Show more