• Song:

    Dance Little Liar

  • Artist:

    Arctic Monkeys

Artist: Arctic Monkeys

Album: Humbug



All tabs by Pedro Zappa
-----------------------------------------------------------------------------
-----------------------------------------------------------------------------


8. Dance Little Liar


Intro

G||--------------------|--------------------||  x4
D||--------------------|--------------------||
A||-4-4--4-4-----------|-------------7--7-7-||
E||-----------4-4--4-4-|-2-2--2-2--2/-------||
    i    i    i    i     i    i    i    i

Verse 1

G||--------------------|--------------------||  x8
D||--------------------|--------------------||
A||-4-4--4-4-----------|-------------7--7-7-||
E||-----------4-4--4-4-|-2-2--2-2--2/-------||
    i    i    i    i     i    i    i    i

Chorus 1

G||--------------------|--------------------|
D||--------------------|--------------------|
A||--------------------|--------------------|
E||-5-5--5-5--5-5--5-5-|-5-5--5-5--2-2--2-2-|
    i    i    i    i     i    i    i    i
G||--------------------|--------------------|
D||--------------------|--------------------|
A||-4-4--4-4--4-4--4-4-|--------------------|
E||--------------------|-0-0--0-0--0-0--0-0-|
    i    i    i    i     i    i    i    i
G||--------------------|--------------------|
D||--------------------|--------------------|
A||--------------------|--------------------|
E||-2-2--2-2--2-2--2-2-|-0-0--0-0--0-0--0-0-|
    i    i    i    i     i    i    i    i
G||--------------------|--------------------|
D||--------------------|--------------------|
A||--------------------|--------------------|
E||-4-4--4-4--4-4--4-4-|-4------------------|
    i    i    i    i     i    i    i    i

Verse 2

G||--------------------|--------------------||  x4
D||--------------------|--------------------||
A||-4-4--4-4-----------|-------------7--7-7-||
E||-----------4-4--4-4-|-2-2--2-2--2/-------||
    i    i    i    i     i    i    i    i

G||---------------------------------|---------------------||  x4
D||-9p11-11--11-11--11p9------------|---------------------||
A||-----------------------11--11-11-|-7/99--9-9--9-7--7-7-||
E||---------------------------------|---------------------||
    i        i      i         i       i     i    i    i
G||--------------------|--------------------||  x4
D||--------------------|--------------------||
A||-4-4--4-4-----------|-------------7--7-7-||
E||-----------4-4--4-4-|-2-2--2-2--2/-------||
    i    i    i    i     i    i    i    i

Chorus 2

G||--------------------|--------------------|
D||--------------------|--------------------|
A||--------------------|--------------------|
E||-5-5--5-5--5-5--5-5-|-5-5--5-5--2-2--2-2-|
    i    i    i    i     i    i    i    i
G||--------------------|--------------------|
D||--------------------|--------------------|
A||-4-4--4-4--4-4--4-4-|--------------------|
E||--------------------|-0-0--0-0--0-0--0-0-|
    i    i    i    i     i    i    i    i
G||--------------------|--------------------|
D||--------------------|--------------------|
A||--------------------|--------------------|
E||-2-2--2-2--2-2--2-2-|-0-0--0-0--0-0--0-0-|
    i    i    i    i     i    i    i    i
G||--------------------|--------------------|
D||--------------------|--------------------|
A||--------------------|--------------------|
E||-4-4--4-4--4-4--4-4-|-4------------------|
    i    i    i    i     i    i    i    i

(wait)

Bridge

G||--------------------|--------------------|
D||--------------------|--------------------|
A||--------------------|-4--4---4--4--4---4-|
E||-2--2---2--2--2---2-|--------------------|
    i    i    i    i     i    i    i    i
G||--------------------|--------------------|
D||--------------------|--------------------|
A||--------------------|-4--4---4--7--7---7-|
E||-2--2---2--2--2---2-|--------------------|
    i    i    i    i     i    i    i    i
G||--------------------|--------------------|
D||--------------------|--------------------|
A||--------------------|--------------------|
E||-2--2---2--2--2---2-|-0--0---0--0--0---0-|
    i    i    i    i     i    i    i    i
G||--------------------|--------------------||
D||--------------------|----------------2---||
A||--------------------|-------------4------||
E||-0--0---0--0--0---0-|-4----4-----------4-||
    i    i    i    i     i    i    i    i 

Outro

(wait)

G||------------------------||  x8
D||------------------------||
A||-444444-7-4444447--4447-||
E||------------------------||
    i      i    i     i     

Chorus 3

G||--------------------|--------------------|
D||--------------------|--------------------|
A||--------------------|--------------------|
E||-5-5--5-5--5-5--5-5-|-5-5--5-5--2-2--2-2-|
    i    i    i    i     i    i    i    i
G||--------------------|--------------------|
D||--------------------|--------------------|
A||-4-4--7-4--4-7--4-7-|-4-4--7-4-----------|
E||--------------------|-----------0-0--0-0-|
    i    i    i    i     i    i    i    i
G||--------------------|--------------------|
D||--------------------|--------------------|
A||--------------------|--------------------|
E||-2-2--2-2--2-2--2-2-|-2-2--2-2--0-0--0-0-|
    i    i    i    i     i    i    i    i
G||--------------------|--------------------|
D||--------------------|--------------------|
A||-4-4--7-4--4-7--4-7-|-4-4--7-4--2-2--2-2-|
E||--------------------|--------------------|
    i    i    i    i     i    i    i    i

G||--------------------|--------------------|
D||--------------------|--------------------|
A||--------------------|--------------------|
E||-5-5--5-5--5-5--5-5-|-5-5--5-5--2-2--2-2-|
    i    i    i    i     i    i    i    i
G||--------------------|--------------------|
D||--------------------|--------------------|
A||-4-4--7-4--4-7--4-7-|-4-4--7-4-----------|
E||--------------------|-----------0-0--0-0-|
    i    i    i    i     i    i    i    i
G||--------------------|--------------------|
D||--------------------|--------------------|
A||--------------------|--------------------|
E||-2-2--2-2--2-2--2-2-|-2-2--2-2--0-0--0-0-|
    i    i    i    i     i    i    i    i
G||--------------------|--------------------|
D||--------------------|--------------------|
A||--------------------|--------------------|
E||-4-4--4-4--4-4--4-4-|-4------------------|
    i    i    i    i     i    i    i    i


Tab by Pedro Zappa
-----------------------------------------------------------------------------
-----------------------------------------------------------------------------
Show more