• Song:

    Fake tales of San Francisco

  • Artist:

    Arctic Monkeys

  • Album:

    Demos

Artist: Arctic Monkeys

Album: Whatever People Say I Am That's What I Am Not



All tabs by Pedro Zappa
-----------------------------------------------------------------------------
-----------------------------------------------------------------------------


3. Fake Tales Of San Francisco


Intro

G||--------------------|--------------------|
D||--------------------|--------------------|
A||------5----5-7--5---|------5----5-7--5---|
E||-7------7-----------|-7------7-----------|
    i    i    i    i     i    i    i    i
G||--------------------|--------------------|| 
D||--------------------|-------------7------||
A||------5----5-7--5---|------5-7--9----7-5-||
E||-7------7-----------|-7------------------||
    i    i    i    i     i    i    i    i

Verse

G||--------------------|--------------------|
D||--------------------|--------------------|
A||------5----5-7--5---|------5----5-7--5---|
E||-7------7-----------|-7------7-----------|
    i    i    i    i     i    i    i    i
G||--------------------|--------------------||  x4
D||--------------------|-------------7------||
A||------5----5-7--5---|------5-7--9----7-5-||
E||-7------7-----------|-7------------------||
    i    i    i    i     i    i    i    i

Chorus 1

G||--------------------|--------------------|
D||--------------------|--------------------|
A||--------------------|------------------0-|
E||-7------------------|-------------0--2---|
    i    i    i    i     i    i    i    i
G||--------------------|--------------------|
D||--------------------|--------------------|
A||-2------------------|------------------0-|
E||--------------------|-------------0--2---|
    i    i    i    i     i    i    i    i
G||--------------------|--------------------|
D||--------------------|--------------------|
A||-2------------------|------------------0-|
E||--------------------|-------------0--2---|
    i    i    i    i     i    i    i    i
G||--------------------|--------------------|
D||--------------------|--------------------|
A||-2------------------|--------------------|
E||--------------------|--------------------|
    i    i    i    i     i    i    i    i

Verse 2

G||--------------------|--------------------|
D||--------------------|--------------------|
A||------5----5-7--5---|------5----5-7--5---|
E||-7------7-----------|-7------7-----------|
    i    i    i    i     i    i    i    i
G||--------------------|--------------------||  x4
D||--------------------|-------------7------||
A||------5----5-7--5---|------5-7--9----7-5-||
E||-7------7-----------|-7------------------||
    i    i    i    i     i    i    i    i

Chorus 2

G||--------------------|--------------------|
D||--------------------|--------------------|
A||--------------------|------------------0-|
E||-7------------------|-------------0--2---|
    i    i    i    i     i    i    i    i
G||--------------------|--------------------|
D||--------------------|--------------------|
A||-2------------------|------------------0-|
E||--------------------|-------------0--2---|
    i    i    i    i     i    i    i    i
G||--------------------|--------------------|
D||--------------------|--------------------|
A||-2------------------|------------------0-|
E||--------------------|-------------0--2---|
    i    i    i    i     i    i    i    i
G||--------------------|--------------------||
D||--------------------|--------------------||
A||-2------------------|--------------------||
E||--------------------|--------------------||
    i    i    i    i     i    i    i    i


G||--------------------|--------------------|
D||--------------------|--------------------|
A||--------------------|--------------------|
E||-7-7--7-7--7-7--7-7-|-7-7--7-7--7-7--7-7-|
    i    i    i    i     i    i    i    i
G||--------------------|--------------------|
D||--------------------|-9-9--7-7-------7-7-|
A||--------------------|-----------9-9------|
E||-3-3--3-3--3-3--3-3-|--------------------|
    i    i    i    i     i    i    i    i
G||--------------------|--------------------|
D||--------------------|-9-9--7-7-------7-7-|
A||-7-7--7-7--7-7--7-7-|-----------9-9------|
E||--------------------|--------------------|
    i    i    i    i     i    i    i    i
G||--------------------|-----------7-8--9---||   x2
D||-9-9--9-9--9-9--9-9-|-9-9--9-9-----------||
A||--------------------|--------------------||
E||--------------------|--------------------||
    i    i    i    i     i    i    i    i

G||--------------------|--------------------|
D||--------------------|--------------------|
A||--------------------|--------------------|
E||-7-7--7-7--7-7--7-7-|-7-7--7-7--7-7--7-7-|
    i    i    i    i     i    i    i    i
G||--------------------|--------------------|
D||--------------------|-9-9--7-7-------7-7-|
A||--------------------|-----------9-9------|
E||-3-3--3-3--3-3--3-3-|--------------------|
    i    i    i    i     i    i    i    i
G||--------------------|--------------------|
D||--------------------|-9-9--7-7-------7-7-|
A||-7-7--7-7--7-7--7-7-|-----------9-9------|
E||--------------------|--------------------|
    i    i    i    i     i    i    i    i
G||--------------------|--------------------|| 
D||--------------------|--------------------||
A||--------------------|--------------------||
E||-7-7--7-7--7-7--7-7-|-7-7--7-7--7-7--7-7-||
    i    i    i    i     i    i    i    i

G||--------------------|--------------------|
D||--------------------|--------------------|
A||--------------------|--------------------|
E||-7-7--7-7--7-7--7-7-|-7-7--7-7--7-7--7-7-|
    i    i    i    i     i    i    i    i
G||--------------------|--------------------|
D||--------------------|-9-9--7-7-------7-7-|
A||--------------------|-----------9-9------|
E||-3-3--3-3--3-3--3-3-|--------------------|
    i    i    i    i     i    i    i    i
G||--------------------|--------------------|
D||--------------------|-9-9--7-7-------7-7-|
A||-7-7--7-7--7-7--7-7-|-----------9-9------|
E||--------------------|--------------------|
    i    i    i    i     i    i    i    i
G||--------------------|--------------------||-------||
D||--------------------|--------------------||-------||
A||--------------------|--------------------||-------||
E||-3-3--3-3--3-3--3-3-|-3-3--3-3--3-3--3-3-||-7\----||
    i    i    i    i     i    i    i    i

(wait) 

G||--------------------|--------------------|
D||--------------------|--------------------|
A||------5-------------|------5-------------|
E||-7------7-----------|-7------7-----------|
    i    i    i    i     i    i    i    i
G||--------------------|--------------------|-------||
D||--------------------|--------------------|-------||
A||------5-------------|------5-------------|-------||
E||-7------7-----------|-7------7-------5---|-7\----||
    i    i    i    i     i    i    i    i


Tab by Pedro Zappa
-----------------------------------------------------------------------------
-----------------------------------------------------------------------------
Show more