• Song:

    Pretty Visitors

  • Artist:

    Arctic Monkeys

Artist: Arctic Monkeys

Album: Humbug



All tabs by Pedro Zappa
-----------------------------------------------------------------------------
-----------------------------------------------------------------------------


9. Pretty Visitors


Intro

(wait)

Verse 1

G||--------------------|--------------------||  x2
D||--------------------|--------------------||
A||-9-9--9----5-5--5---|-9------------------||
E||--------------------|--------------------||
    i    i    i    i     i    i    i    i
G||--------------------|--------------------||
D||--------------------|--------------------||
A||--------------------|--------------------||
E||-7-7--7-2----2--2---|-7-7--7-5----5--5---||
    i    i    i    i     i    i    i    i
G||--------------------|--------------------||  x3
D||--------------------|--------------------||
A||-9-9--9----5-5--5---|-9------------------||
E||--------------------|--------------------||
    i    i    i    i     i    i    i    i
G||--------------------|--------------------|
D||--------------------|--------------------|
A||--------------------|--------------------|
E||-7-7--7-2----2--2---|-7-7--7-5----5--5---|
    i    i    i    i     i    i    i    i
G||--------------------|--------------------||
D||--------------------|--------------------||
A||-9-9--9----5-5--5---|-9------------------||
E||--------------------|--------------------||
    i    i    i    i     i    i    i    i

Pre-Chorus 1

G||--------------------||  x4
D||--------------------||
A||--------------------||
E||-2/---9\---2/---10\-||
    i    i    i    i  

Chorus 1

G||----------------------|--------------------|
D||----------------------|----------------6---|
A||------------------0-4-|-5----5----5--------|
E||-2----2----2----2-----|--------------------|
    i    i    i    i       i    i    i    i
G||----------------------|--------------------||  x2
D||----------------------|--------------------||
A||------------------0-4-|-5----5----5--------||
E||-2----2----2----2-----|----------------4---||
    i    i    i    i       i    i    i    i

Verse 2

G||--------------------|--------------------||  x2
D||--------------------|--------------------||
A||-9-9--9----5-5--5---|-9------------------||
E||--------------------|--------------------||
    i    i    i    i     i    i    i    i
G||--------------------|--------------------||
D||--------------------|--------------------||
A||--------------------|--------------------||
E||-7-7--7-2----2--2---|-7-7--7-5----5--5---||
    i    i    i    i     i    i    i    i
G||--------------------|--------------------||  x3
D||--------------------|--------------------||
A||-9-9--9----5-5--5---|-9------------------||
E||--------------------|--------------------||
    i    i    i    i     i    i    i    i
G||--------------------|--------------------|
D||--------------------|--------------------|
A||--------------------|--------------------|
E||-7-7--7-2----2--2---|-7-7--7-5----5--5---|
    i    i    i    i     i    i    i    i
G||--------------------|--------------------||
D||--------------------|--------------------||
A||-9-9--9----5-5--5---|-9------------------||
E||--------------------|--------------------||
    i    i    i    i     i    i    i    i

Chorus 2

G||----------------------|--------------------|
D||----------------------|----------------6---|
A||------------------0-4-|-5----5----5--------|
E||-2----2----2----2-----|--------------------|
    i    i    i    i       i    i    i    i
G||----------------------|--------------------||  x2
D||----------------------|--------------------||
A||------------------0-4-|-5----5----5--------||
E||-2----2----2----2-----|----------------4---||
    i    i    i    i       i    i    i    i
G||--------------------||
D||--------------------||
A||--------------------||
E||-2------------------||
    i    i    i    i  

Bridge

(wait)

G||--------------------||
D||--------------------||
A||--------------------||
E||-----------14\------||
    i    i    i    i  
G||--------------------|--------------------||  x2
D||----------------4--3|------3---4---------||
A||------5----4---5----|-5---------4--------||
E||-2------------------|--------------------||
    i    i    i    i     i    i    i    i
G||--------------------|-------------------------||
D||----------------4--3|------3---4-----11-11-11-||
A||------5----4---5----|-5---------4-------------||
E||-2------------------|-------------------------||
    i    i    i    i     i    i    i    i
G||--------------------|--------------------||
D||----------------4--3|------3---4---------||
A||------5----4---5----|-5---------4--------||
E||-2------------------|--------------------||
    i    i    i    i     i    i    i    i

G||--------------------|--------------------|
D||-4434-3340-4444-4444|-4334-3340-4444-4444|
A||--------------------|--------------------|
E||--------------------|--------------------|
    i    i    i    i     i    i    i    i
G||--------------------|--------------------|
D||-4334-3340-4444-4444|-4334-3340----------|
A||--------------------|--------------------|
E||--------------------|--------------------|
    i    i    i    i     i    i    i    i

G||--------------------|--------------------|
D||-4434-3340--444-4444|-4334-3340--444-4444|
A||--------------------|--------------------|
E||--------------------|--------------------|
    i    i    i    i     i    i    i    i
G||--------------------|--------------------|----------|
D||-4334-3340--444-4444|-4334-334--0--------|----------|
A||--------------------|----------------5---|-5--------|
E||--------------------|--------------------|------4---|
    i    i    i    i     i    i    i    i     i    i

Chorus 3

G||----------------------|--------------------|
D||----------------------|----------------6---|
A||------------------0-4-|-5----5----5--------|
E||-2----2----2----2-----|--------------------|
    i    i    i    i       i    i    i    i
G||----------------------|--------------------||  x2
D||----------------------|--------------------||
A||------------------0-4-|-5----5----5--------||
E||-2----2----2----2-----|----------------4---||
    i    i    i    i       i    i    i    i
G||--------------------||
D||--------------------||
A||--------------------||
E||-2------------------||
    i    i    i    i  

Tab by Pedro Zappa
-----------------------------------------------------------------------------
-----------------------------------------------------------------------------
Show more