Juliet Tab by Army Of Freshman


this is the whole but it's most of it, i'll get the rest of it 2 y'all asap


Intro 1(let ring for drum intro)
|-----|
|-----|
|--7~-|
|--7~-|
|--5~-|
|-----|

Intro 2/pre-verse
|------------------|x3
|------------------|
|--7-7-7-7---------|
|--7-7-7-7-9-9-7-7-|
|--5-5-5-5-9-9-7-7-|
|----------7-7-5-5-|

|------------------|
|------------------|
|------------------|
|--2-2-2-2-7-7-7-7-|
|--2-2-2-2-7-7-7-7-|
|--0-0-0-0-5-5-5-5-|


Verse (come in when he says "I am the one on IM with the 37 names"
|----------------------------------|
|----------------------------------|
|--7-7-7-7-------------------------|
|--7-7-7-7-5-5-5-5-9-9-9-9-7-7-7-7-|
|--5-5-5-5-5-5-5-5-9-9-9-9-7-7-7-7-|
|----------3-3-3-3-7-7-7-7-5-5-5-5-|
 pm. . . . . . . . . . . . . . . .


Chorus ("she's so cold...")
|------------------|x3
|------------------|
|--7-7-7-7-9-9-9-9-|
|--7-7-7-7-9-9-9-9-|
|--5-5-5-5-7-7-7-7-|
|------------------|

|------------------|
|------------------|
|------------------|
|--9-9-9-9-7-7-7-7-|
|--9-9-9-9-7-7-7-7-|
|--7-7-7-7-5-5-5-5-|

Intro 2/Pre-verse
Verse (come in when he says "That I can drive around in circles")

Pre-Chorus (second time only)
|-------------------|
|-------------------|
|--7-7-7-7-7-7-7-7~-|
|--7-7-7-7-7-7-7-7~-|
|--5-5-5-5-5-5-5-5~-|
|-------------------|

Chorus x2

atm i dno the bridge but i'm workin on it and should be on soon
the outro is the same as Intro 2/Pre-verse

Hope y'all like it :D
Show more