• Song:

    Forget The Cold Sweat

  • Artist:

    Arno

  • Album:

    Best of

Arno 

                         forget the cold sweat


Tempo = 120
4/4

Jouer le riff tout le long du morceaux

      Am
G |-----------------------------------------------------|
D |----------------------------------------3------------|
A |----0-----------3s5------5------5-------------5------|
E |-----------------------------------------------------|


G |-----------------------------------------------------|
D |---------------------------------------3-------------|
A |------0-----------2s3------------3----------5--------|
E |-----------------------------------------------------|


G |-----------------------------------------------------|
D |----------------------------------------3------------|
A |----0-----------3s5------5------5-------------5------|
E |-----------------------------------------------------|


G |-----------------------------------------------------|
D |-----------------------------------------------------|
A |------0-----------2s3--------------------3-----------|
E |-----------------------------------------------------|

For guitar pro 6 tab, mail me at gwendal.mollo@orange.fr
Show more