Hi my friends This is my first tab and I think it sounds pretty darn close to how 
they play it. Correct me if it is necessary =). So enjoy it!!!!!!!!!!!!
Tonalli mija esta cancion la saque pensando en ti!!!!!!!!!!
-------------------------------------------------------------------------------
			     We'll Be Togheter - Ashley Tisdale
-------------------------------------------------------------------------------
Tabbed by:Sosa
Email:ricardo_3177@hotmail.com

Chords:
   E:     E/D#:    E/C#:     A:     D:    B:  F#m:
e|-0------0--------0---------0------2-----2----2-----------------------------|
B|-0------0--------0---------2------3-----4----2-----------------------------|
G|-1------1--------1---------2------2-----4----2-----------------------------|
D|-2------1--------2---------2------0-----4----4-----------------------------|
A|-2------x--------4---------0------x-----2----4-----------------------------|
E|-0------x--------x---------x------x-----x----2-----------------------------|
Intro: E - E/D# - E/C# - A

E
I'm not alone 
E/D#                             E/C#
even when we're apart i feel you 
        A
in the air (yeah) 
E
I'm not afraid 
E/D#
I know what you're thinking
           E/C#          A
I can hear you everywhere 


D
Some people say it'll never happen 
B
And we're just wasting time 
D
But good things come when you least expect them
B
so I don't really mind 



(CHORUS) 
E                             A
We'll be together come whatever 
                           F#m
Not just staring at the stars 
Just remember 
B                              
That no one else could tell us who we are 
E                             A
We'll be together so don't ever
                         F#m
Stop listening to your heart 
                       B
Cuz I can't turn mine up

Woah Woah


E - A - F#m - B
Oh


E
I can't pretend 
E/D#                                E/C#
This is a rehersal for the real thing 
               A
Because it's not 
E
And I know we're young 
E/D#                               E/C#
I can't help feeling what I'm feeling 
               A
And I won't stop 


D
Some things are meant to be and will be there 
B
When the time is right 
D
Even though I know that 
B
I swear I wish you were tonight (wish you were tonight) 


(CHORUS) 

D
Ooooh Yeah 
A
I like what's happening to me 
D
Ooooh Yeah 
A
Nothing else to say Oh 
D
Ooooh Yeah 
A                         B
Somebody finally got to me                
Carry me away (carry me away)


(CHORUS) 

(keep playing)E - A - F#m - B

Woah oh oh
Yeah 

We'll be together come whatever 
(Come whatever 
Come Whatever, come whatever)

Oh 

E
I'm not alone 
E/D#                           A (strum once)
even when we're apart I feel you
Show more