• Song:

    A Candlelit Dinner With Inamorta

  • Artist:

    Asking Alexandria

A Candlelit Dinner With Inamorta 
Drop Dizzle 
Was easy to tab and play, just get your fast steady strum together for this’un 

SAID!

G|------------------------------|
D|------------------------------|
A|------------------------------|
D|000-000-000000000-00-00-00-00-|

Continue until Verse

Verse:
|----------------------------------------------------------|
|----------------------------------------------------------|
|----------------------------------------------------------|
|0-0-0-0-0-0-0-0-0-0-0-0-0-0~-0~-0-0-0-0-0-0-3-3-3-3-3-3-3-|

Or If You Are A Brave One:
|-----4----------|
|1-2---2-1---1~--|
|----------4-----|
|----------------|

|-----------------------------------------------------|
|-----------------------------------------------------|
|-----------------------------------------------------|
|0~-0-0-0-0-0-0-0-0-0-0-0-0-0-0-8--8-7--7-10--10-8--8-|

Breakdown:
|------------------------------------|
|------------------------------------|
|------------------------------------|
|0~--------00-00---00-00----00—00000-|

|-------------------------------|
|-------------------------------|
|-------------------------------|
|00-00---00-00----7-8-0-5-0-3b~-|

|-------------------------------------------|
|-------------------------------------------|
|-------------------------------------------|
|1-1~--1-1~---1-1~-1-1~---1-1~---1-1-1-1-1~-|

|-------------------------------------|
|-------------------------------------|
|-------------------------------------|
|00---00----0---00---00------00---00--|

Bravies:
|------------------------------------|
|------------------------------------|
|------------------------------------|
|000--000----000—000---------000—000-|
Chorus
|--------------------------------------------------------------------|
|--------------------------------------------------------------------|
|--------------------------------------------------------------------|
|7-7-7-7-7-7-7-7-7-7-7-7-7-7-7-7-7-7-9-9-9-9-9-9-9-9-9-9-9-9-9-9-9-9-|

|--------------------------------------------------------------------|
|--------------------------------------------------------------------|
|--------------------------------------------------------------------|
|10-10-10-10-10-10-10-10-10-10-10-10-9-9-9-9-9-9-9-9-9-9-9-9-9-9-9---|

|------|
|------|
|------|
|7~----|

Synth Lead Enters:

FOR US!

FOR THEM!

FISTPUMP!


THEN:

|------------------------------------------|
|------------------------------------------|
|------------------------------------------|
|0-0-0000-00-000----00-00—000-0-0-00-00-00-|

Repeat Chorus.

Yeah. End on 7.
Show more