• Song:

    Alerion

  • Artist:

    Asking Alexandria

-------------------------------------------------------------------------------
			                               ALERION - Asking Alexandria
-------------------------------------------------------------------------------

Tabbed By : Gus 
e-mail: guss_buss_2517@hotmail.com

Tuning: Drop D (DADG)

G|----------------------------------------------------|
D|----------------------------------------------------|
A|----------------------------------------------------|
D|-0~------------0x0x-------------0~------------------|

G|---------------------------------------------------------------------------|
D|---------------------------------------------------------------------------|
A|---------------------------------------------------------------------------|
D|-0000x---------0000x--000000x--0000x-----------0000x-----------------------|

G|---------------------------------------------------------------------------|
D|---------------------------------------------------------------------------|
A|---------------------------------------------------------------------------|
D|-0000x---------0000x--000000x--0000x-----------0000x-----------------------|

G|---------------------------------------------------------------------------|
D|---------------------------------------------------------------------------|
A|---------------------------------------------------------------------------|
D|-0000~---------0000~--000000~--0000~-----------0000x-1-1-1-----------------|

G|---------------------------------------------------------------------------|
D|---------------------------------------------------------------------------|
A|---------------------------------------------------------------------------|
D|-0000x---------0000x--000000x--0000x-----------0000x-1-1-1-----------------|

G|---------------|
D|---------------|
A|---------------|
D|-0~------------|

G|----------------------------------------------------------------|
D|----------------------------------------------------------------|
A|-5~------------5~---647-0~---8----5~-----------5~---647-0~------|
D|----------------------------------------------------------------|

G|---------------|
D|---------------|
A|-777777777-----|
D|---------------|

G|---------------------------------------------------------------------------|
D|---------------------------------------------------------------------------|
A|---------------------------------------------------------------------------|
D|-000x------------000x-000x-----------000x----------000x-000x---------------|

G|---------------------------------------------------------------------------|
D|---------------------------------------------------------------------------|
A|---------------------------------------------------------------------------|
D|-000x------------000x-000x-----------000x----------000x-00-00--------------|

|---------------------------------------------------------------------------|
D|---------------------------------------------------------------------------|
A|---------------------------------------------------------------------------|
D|-000x------------000x-000x-----------000x----------000x-000x---------------|

G|---------------------------------------------------------------------------|
D|---------------------------------------------------------------------------|
A|---------------------------------------------------------------------------|
D|-000x------------000x-000x-----------000x----------000x-00-00--------------|

| /  slide up
| \  slide down
| h  hammer-on
| p  pull-off
| ~  vibrato
| +  harmonic
| x  Mute note
===============================================================================
Show more