• Song:

    Alerion

  • Artist:

    Asking Alexandria

Hey, this is my tab to alerion by Asking Alexandria, this is my first tab and I put it 
together in computer class in an hour.
Comment on any thing I need to inprove on.Sorry if there are mistakes







e--------------------------------------------------------------------------------------------|
B--------------------------------------------------------------------------------------------|
G--------------------------------------------------------------------------------------------|
D--------------------------------------------------------------------------------------------|
A-----0----------------*00----------0--------------------*0000---------*000000000000---------|
D-----0----------------*00----------0--------------------*0000---------*000000000000---------|




e--------------------------------------------------------------------------------------------|
B--------------------------------------------------------------------------------------------|
G--------------------------------------------------------------------------------------------|
D--------------------------------------------------------------------------------------------|
A----*0000-----drum roll-------*0000------*00000000000000-------*0000------------------------|
D----*0000---------------------*0000------*00000000000000-------*0000------------------------|




e--------------------------------------------------------------------------------------------|
B--------------------------------------------------------------------------------------------|
G--------------------------------------------------------------------------------------------|
D--------------------------------------------------------------------------------------------|
A---Extend these notes-----*0000-----*00000000000000---------*0000----*000---------0---------|
D--------------------------*0000-----*00000000000000---------*0000----*111---------0---------|




e--------------------------------------------------------------------------------------------|
B--------------------------------------------------------------------------------------------|
G--------------------------------------------------------------------------------------------|
D--------------------------------------------------------------------------------------------|
A-----*0000-------*00000000000000--------*000-------0----------------------------------------|
D-----*0000-------*00000000000000--------*111-------0----------------------------------------|




e--------------------------------------------------------------------------------------------|
B--------------------------------------------------------------------------------------------|
G---------------7--------------7------------7-------10--------9--------12--------3-----------|
D------------X--------------X------------X--------X--------X---------X---------X-------------|
A---------5--------------5------------5--------8---------7--------10---------1---------------|
D--------------------------------------------------------------------------------------------|



e--------------------------------------------------------------------------------------------|
B--------------------------------------------------------------------------------------------|
G----------7-----------7-------7--------10-------9-------12-------3------99999999999---------|
D--------X-----------X-------X--------X--------X-------X--------X---------XXXXXXXXX----------|
A------9-----------5-------5--------8--------7-------10-------1----------77777777777---------|
D--------------------------------------------------------------------------------------------|




e--------------------------------------------------------------------------------------------|
B--------------------------------------------------------------------------------------------|
G--------------------------------------------------------------------------------------------|
D--------------------------------------------------------------------------------------------|
A--------*000----*000000----*000------*000000-----*000----*000000----*000--------------------|
D--------*000----*000000----*000------*000000-----*000----*000000----*000--------------------|




e---------------------------------------------------------------------------|
B---------------------------------------------------------------------------|
G---------------------------------------------------------------------------|
D---------------------------------------------------------------------------|
A----*00000000-----------EXTEND THESE NOTES------*000-----*000000-----*000--|
D----*00000000-----------------------------------*000-----*000000-----*000--|




e-----------------------------------------------------------------------------|
B-----------------------------------------------------------------------------|
G-----------------------------------------------------------------------------|
D-----------------------------------------------------------------------------|
A------*000---*000000------*000---*000000000--------END-----------------------|
D-----*000----*000000-----*000----*000000000----------------------------------|
Show more