• Song:

    If You Cant Ride Two Horses At Once You Should Get Out Of The Circus

  • Artist:

    Asking Alexandria

Intro x2 "I can't breathe"
G---------------------------------------------------------------------------|
D---------------------------------------------------------------------------|
A---------------------------------------------------------------------------|
D-00000--00000--0000--00000-------12/---------------------------------------|

Preverse "I feel I failed..."
G---------------------------------------------------------------------------|
D---------------------------------------------------------------------------|
A---------------------------------------------------------------------------|
D-00000~----00000~----0000~----00000~---------------------------------------|

G---------------------------------------------------------------------------|
D---------------------------------------------------------------------------|
A---------------------------------------------------------------------------|
D-00000--------00000--------------00000----------0000---000-000-------------|

G---------------------------------------------------------------------------|
D---------------------------------------------------------------------------|
A---------------------------------------------------------3333/5555---------|
D-00000--------00000--------------00000----------0000--------------0~-------|

G---------------------------------------------------------------------------|
D---------------------------------------------------------------------------|
A---------------------------------------------------------------------------|
D-----0-------------00-------------0--------00~-----------------------------|

Verse x2
G---------------------------------------------------------------------------|
D---------------------------------------------------------------------------|
A-5---5---5---8--7--5--7-----------------------10-8-------------------------|
D---0---0-----------------8-0-8-0-8-7-0-7-0-7-------------------------------|

G---------------------------------------------------------------------------|
D---------------------------------------------------------------------------|
A-5----5----5---8--7-5-7--10---10---10---8---8---8---5h7p-------------------|
D---0----0-------------------0----0----0---0---0----------------------------|

G---------------------------------------------|
D---------------------------------------------|
A---------------------------------------------|
D----------8-00-10----------------------------|

pre-chorus "I was meant to make you smile..."
G---------------------------------------------------------------------------|
D---------------------------------------------------------------------------|
A---------------------------------------------------------------------------|
D--3-00---3h5--3-00---------------------3--00--5----------------------------|
        ^^ 2x
vv x2
G---------------------------------------------------------------------------|
D--------------------------------------3h5p3--------------------------------|
A-----------------------------------3h5-----5p3-----------------------------|
D-3-00--000-3-00-5-00-6-00-3-00--3h5----------------------------------------|

G---------------------------------------------------------------------------|
D---------------------------------------------------------------------------|
A---------------------------------------------------------------------------|
D-3-00--000-3-00-5-00-6-00-3-00------3-0-0-5--------------------------------|
^^x2

Chorus "So there's no you and me...."
G---------------------------------------------------------------------------|
D---------------------------------------------------------------------------|
A---888888888888888-77777777777-111111111111-------3-------5----------------|
D--------------------------------------------3333333-5555555-666666---------|

G---------------------------------------------------------------------------|
D---------------------------------------------------------------------------|
A---888888888888888-121212121212-11111111111-7777-8888-10101010-8b~---------|
D---------------------------------------------------------------------------|
                    (^^those are 12's)
Breakdown
G---------------------------------------------------------------------------|
D---------------------------------------------------------------------------|
A---------------------------------------------------------------------------|
D-00000-00000--00-00000-0000000-0~-0~-0~-0~-000000--00-0~-0~-0~-0~-00000----|

(vv there are two ways I put down. following drums or folling guitar, your pick)

G---------------------------------------------------------------------------|
D---------------------------------------------------------------------------|
A--555588884444777755558888101010107777-x2----------------------------------|
D----------------------------------------111111-111111-11-111111-11111-11-0~|

OR

G---------------------------------------------------------------------------|
D---------------------------------------------------------------------------|
A---------------------------------------------------------------------------|
D-0000000-000000-00--000000--0000000-x2--111111-111111-11-111111-11111-11-0~|

Hook x2
G---------------------------------------------------------------------------|
D---------------------------------------------------------------------------|
A-8x8-7x8-10x8-13x4-12x4--8x8-7x8-8x8-1x4-5x4-------------------------------|
D---------------------------------------------------------------------------|

Ending Note
G------------------------------|
D------------0~----------------|
A------------5~----------------|
D------------0~----------------|

After that the drums and the vocals go on for like 10 seconds or something.
I'm pretty confident in myself that is how it's played
if you find any goof's, then change it to your liking.
Enjoi!
Show more