• Song:

    If You Cant Ride Two Horses At Once You Should Get Out Of The Circus

  • Artist:

    Asking Alexandria

If You Can't Ride Two Horses At Once... You Should Get Out Of The Circus
Asking Alexandria

The other version of this is good but it has some mistakes and missing parts so I tabbed 
own. Please rate and comment.

Tuning: Drop D

Guitar 1  (tremelo pick)
e|----------------------------------------------------|
B|----------------------------------------------------|
G|----------------------------------------------------|
D|----------------------------------------------------|
A|---5---8-7---------10-8-7-8-----5---8-7-------------|
E|-------------8-7-------------------------8-7--------|

Guitar 2
e|----------------------------------------------------|
B|----------------------------------------------------|
G|----------------------------------------------------|
D|----------------------------------------------------|
A|--000000-000000--0000--000000-----------------------| x4
E|--000000-000000--0000--000000-----------------------|
    ...... ......  ....  ......

Both Guitars
e|----------------------------------------------------|
B|----------------------------------------------------|
G|----------------------------------------------------|
D|----------------------------------------------------|
A|--000000~-000000~-0000~-000000~---------------------| x2
E|--000000~-000000~-0000~-000000~---------------------|
    ......  ......  ....  ......

Guitar 1
e|------------------------------------------------------------------|
B|----------6----------------6------------6-------------------------|
G|------------9------------9---6------------9-----------------------|
D|--------------7--------7--------------------7---------------------|
A|--000000---------0000-----------000000---------0000--00000-00000--|
E|--000000---------0000-----------000000---------0000--00000-00000--|
    ......         ....           ......         ....  ..... .....

e|-----------------------------------------------------------------|
B|----------6----------------6------------6------------------------|
G|------------9------------9---9------------9----------5--7--------|
D|--------------7--------7--------------------7--------x--x---0~---|
A|--000000---------0000-----------000000---------0000--3--5---0~---|
E|--000000---------0000-----------000000---------0000---------0~---|

Guitar 2
e|---------------------------------------------------------------------|
B|---------------------------------------------------------------------|
G|---------------------------------------------------------------------|
D|----------10----------------10------------10-------------------------|
A|--000000-----8----0000----8----8--000000-----8----0000--00000-00000--|
E|--000000-------7--0000--7---------000000-------7--0000--00000-00000--|
    ......          ....            ......          ....  ..... .....

e|-------------------------------------------------------------------|
B|-------------------------------------------------------------------|
G|--------------------------------------------------------5--7-------|
D|----------10----------------10------------10------------x--x--0~---|
A|--000000-----8----0000----8----8--000000-----8----0000--3--5--0~---|
E|--000000-------7--0000--7---------000000-------7--0000--------0~---|
    ......          ....            ......          ....

Guitar 1 x3
e|----------------------------------------------------------------------|
B|----------------------------------------------------------------------|
G|----------------------------------------------------------------------|
D|----------------------------------------------------------------------|
A|--5-----5-----5---8---7---5---7----1-----1-----1---0-----0-----10-8---|
E|----0-0---0-0---0---0---0---0---0----0-0---0-0---0---0-0---0-0--------|
      . .   . .   .   .   .   .   .    . .   . .   .   . .   . .

e|------------------------------------------------------------------------|
B|------------------------------------------------------------------------|
G|------------------------------------------------------------------------|
D|------------------------------------------------------------------------|
A|--5-----5-----5---8---7---5---7----10-----10-----10-----8-----8----8----|
E|----0-0---0-0---0---0---0---0---0-----0-0----0-0----0-0---0-0---0-0---0-|
      . .   . .   .   .   .   .   .     . .    . .    . .   . .   . .   .

Guitar 2
e|--------------------------------------------|
B|--------------------------------------------|
G|--------------------------------------------|
D|--------------------------------------------|
A|--0-----0-0---0---0-0~----------------------|
E|--0-----0-0---0---0-0~---\pickslide\--------|
    .     . .   .   . .

Guitar 2 - riff with Guitar 1
e|---------------------------------------------------------------------|
B|---------------------------------------------------------------------|
G|---------------------------------------------------------------------|
D|---3----3-----3---7---5---3---5--------------------------------------|
A|----------------------------------5-----5-----5---3-----3-----8-7----|
E|----0-0---0-0---0---0---0---0---0---0-0---0-0---0---0-0---0-0--------|
      . .   . .   .   .   .   .   .   . .   . .   .   . .   . .

e|------------------------------------------------------------------|
B|------------------------------------------------------------------|
G|------------------------------------------------------------------|
D|--3-----3-----3---7---5---3---5---8----8----8---7----7-----7------|
A|------------------------------------------------------------------| x2
E|----0-0---0-0---0---0---0---0---0---0-0--0-0--0---0-0--0-0---0----|
      . .   . .   .   .   .   .   .   . .  . .  .   . .  . .   .

Both Guitars
e|----------------|
B|----------------|
G|----------------|
D|--8-----10------|
A|--8-----10------|
E|--8-0-0-10------|
      . .

Both Guitars
e|----------------------------------------------------|
B|----------------------------------------------------|
G|----------------------------------------------------|
D|----------------------------------------------------|
A|--3-00---3h5--3-00-----3-00---3h5--3-00---3-0-0-5---|
E|--3-00---3h5--3-00-----3-00---3h5--3-00---3-0-0-5---|
                                              . .

e|----------------------------------------------------------|
B|----------------------------------------------------------|
G|----------------------------------------------------------|
D|---------------------------------------------3h5p3--------|
A|--3-00-000------------------3-00-000-----3h5-------5------|
E|--3-00-000-3p0-0-5p0-0-6p0--3-00-000--3h5-----------------|
         ...     .     .           ...

e|------------------------------------------------|
B|------------------------------------------------|
G|------------------------------------------------|
D|------------------------------------------------|
A|--3-00-000------------------3-00-000--3-0-0-5---|
E|--3-00-000-3p0-0-5p0-0-6p0--3-00-000--3-0-0-5---|
         ...     .     .           ...  . . . .

e|----------------------------------------------------------|
B|----------------------------------------------------------|
G|----------------------------------------------------------|
D|---------------------------------------------3h5p3--------|
A|--3-00-000------------------3-00-000-----3h5-------5------|
E|--3-00-000-3p0-0-5p0-0-6p0--3-00-000--3h5-----------------|
         ...     .     .           ...

e|------------------------------------------------|
B|------------------------------------------------|
G|------------------------------------------------|
D|------------------------------------------------|
A|--3-00-000------------------3-00-000--3-0-0-5---|
E|--3-00-000-3p0-0-5p0-0-6p0--3-00-000--3-0-0-5---|
         ...     .     .           ...  . . . .

e|---------------------------------------------------|
B|---------------------------------------------------|
G|--10------9------10------14-----12-----15----------|
D|--x--x16--x-x16--x--x16--x--x8--x--x4--x--x4-------|
A|--8-------7------8-------12-----10-----13----------|

e|------------------------------------------------|
B|------------------------------------------------|
G|--10------9------10------3-----9-----10~~-------|
D|--x--x16--x-x16--x--x16--x-x8--x-x8--x----------|
A|--8-------7------8-------1-----7-----8~~--------|

e|----------------------------------------|
B|----------------------------------------|
G|----------------------------------------|
D|----------------------------------------|
A|--0000000-0000000-00--0000000-0000000---|
E|--0000000-0000000-00--0000000-0000000---|
    ....... ....... ..  ....... .......

e|--------------------------------------------|
B|--------------------------------------------|
G|--------------------------------------------|
D|--------------------------------------------|
A|--0~0~0~0--0000000-00--0~0~0~0-0000000-00---|
E|--0~0~0~0--0000000-00--0~0~0~0-0000000-00---|
    . . . .  ....... ..  . . . . ....... ..

Guitar 1 (tremelo pick)
e|-----------------------------|
B|-----------------------------|
G|-----------------------------|
D|-----------------------------|
A|--5--8--4--7--5--8--10--7----| x2
E|-----------------------------|

Added Guitar (guitar 3) (tremelo)
e|--------------------------------|
B|--------------------------------|
G|--------------------------------|
D|--------------------------------|
A|--8--12--7--10--8--12--13--10---| x2
E|--------------------------------|

Guitar 2
e|----------------------------------------|
B|----------------------------------------|
G|----------------------------------------|
D|----------------------------------------|
A|--0000000-000000-00--0000000-000000-00--| x2
E|--0000000-000000-00--0000000-000000-00--|
    ....... ...... ..  ....... ...... ..

Both Guitars
e|----------------------------------------------|
B|----------------------------------------------|
G|----------------------------------------------|
D|----------------------------------------------|
A|--0000000~-000000~-00~--0000000~-000000~-00~--|
E|--1111111~-111111~-11~--1111111~-111111~-11~--|

Guitar 1 (clean)
e|----------------------------------|
B|--10-8-------------------8-5------|
G|-------9-10-9-7-7/9---10----------|
D|----------------------------------|
A|----------------------------------|
E|----------------------------------|

Guitar 2 - fades out and plays this clean
e|--------------------------------------------|
B|--------10-----8-----8---10-----8-----8-----|
G|-----------0-0---0-0---0----0-0---0-0---0---|
D|--0~----------------------------------------|
A|--0~----------------------------------------|
E|--0~----------------------------------------|

Both Guitars x2
e|--------------------------------------|
B|--------------------------------------|
G|--------------------------------------|
D|--10-----9------10-----15-----14------|
A|--x--x8--x--x8--x--x8--x--x4--x--x4---|
E|--8------7------8------13-----12------|

e|--------------------------------------|
B|--------------------------------------|
G|--------------------------------------|
D|--10-----9------10-----3------5-------|
A|--x--x8--x--x8--x--x8--x--x4--x---x4--|
E|--8------7------8------1------3-------|

Guitar 1
e|----------------------------------------|
B|----10-----8-----8---10-----8-----8-----|
G|-------0-0---0-0---0----0-0---0-0---0---|
D|----------------------------------------| repeat till end
A|----------------------------------------|
E|----------------------------------------|

Guitar 2
e|--------|
B|--------|
G|--------|
D|--0~----|
A|--0~----|
E|--0~----|
Show more