• Song:

    If You Cant Ride Two Horses At Once You Should Get Out Of The Circus

  • Artist:

    Asking Alexandria

If You Can't Ride Two Horses At Once... You Should Get Out Of The Circus
Asking Alexandria

The other version of this is good but it has some mistakes and missing parts so I tabbed 
own version and i have updated the ending chorus it's 100%
perfect enjoy! comment and rate please?

Tuning: Drop D


missing lead part's by joseluis92
missing rhythm part's i found that out on my own not that hard.

here's how the tab should sound like

joseluis92's cover

http://www.youtube.com/watch?v=Ha3aMe_Jxcs

my cover(wtfxsteven)

http://www.youtube.com/watch?v=BMK41h4L9Bw

Guitar 1  (tremelo pick)
e|---------------------------------------------------------------|
B|---------------------------------------------------------------|
G|---------------------------------------------------------------|
D|---------------------------------------------------------------|
A|---5"---8"-7"---------10"-8"-7"-8"-----5"---8"-7"--------------|
E|--------------8"-7"-------------------------------8"-7"--------|

Guitar 2
e|----------------------------------------------------|
B|----------------------------------------------------|
G|----------------------------------------------------|
D|----------------------------------------------------|
A|--000000-000000--0000--000000-----------------------| x4
E|--000000-000000--0000--000000-----------------------|
    ...... ......  ....  ......

Both Guitars
e|----------------------------------------------------|
B|----------------------------------------------------|
G|----------------------------------------------------|
D|----------------------------------------------------|
A|--000000~-000000~-0000~-000000~---------------------| x2
E|--000000~-000000~-0000~-000000~---------------------|
    ......  ......  ....  ......

Guitar 1
e|------------------------------------------------------------------|
B|----------6----------------6------------6-------------------------|
G|------------9------------9---6------------9-----------------------|
D|--------------7--------7--------------------7---------------------|
A|--000000---------0000-----------000000---------0000--00000-00000--|
E|--000000---------0000-----------000000---------0000--00000-00000--|
    ......         ....           ......         ....  ..... .....

e|-----------------------------------------------------------------|
B|----------6----------------6------------6------------------------|
G|------------9------------9---9------------9----------5--7--------|
D|--------------7--------7--------------------7--------x--x---0~---|
A|--000000---------0000-----------000000---------0000--3--5---0~---|
E|--000000---------0000-----------000000---------0000---------0~---|

Guitar 2
e|---------------------------------------------------------------------|
B|---------------------------------------------------------------------|
G|---------------------------------------------------------------------|
D|----------10----------------10------------10-------------------------|
A|--000000-----8----0000----8----8--000000-----8----0000--00000-00000--|
E|--000000-------7--0000--7---------000000-------7--0000--00000-00000--|
    ......          ....            ......          ....  ..... .....

e|-------------------------------------------------------------------|
B|-------------------------------------------------------------------|
G|--------------------------------------------------------5--7-------|
D|----------10----------------10------------10------------x--x--0~---|
A|--000000-----8----0000----8----8--000000-----8----0000--3--5--0~---|
E|--000000-------7--0000--7---------000000-------7--0000--------0~---|
    ......          ....            ......          ....

Guitar 1 x3
e|----------------------------------------------------------------------|
B|----------------------------------------------------------------------|
G|----------------------------------------------------------------------|
D|----------------------------------------------------------------------|
A|----5---5-----5---8---7---5---7------------------------10-8-----------|
E|------0-----0---0---0---0---0---0--8-0-8-0-8-0-7-0-7-0----------------|
        .     .   .   .   .   .   .    .   .   .   .   .

e|-------------------------------------------------------------|
B|-------------------------------------------------------------|
G|-------------------------------------------------------------|
D|-------------------------------------------------------------|
A|--5---5---5---8---7---5---7---10---10---10----8---8---8------|
E|----0---0---0---0---0---0---0----0----0----0----0---0--------|
      .   .   .   .   .   .   .    .    .    .    .   .

Guitar 2
e|--------------------------------------------|
B|--------------------------------------------|
G|--------------------------------------------|
D|--------------------------------------------|
A|--0-----0-0---0---0-0~----------------------|
E|--0-----0-0---0---0-0~---\pickslide\--------|
    .     . .   .   . .

Guitar 2 - riff with Guitar 1
e|-----------------------------------------------------------------------|
B|-----------------------------------------------------------------------|
G|-----------------------------------------------------------------------|
D|-----------------------------------------------------------------------|
A|---8--8--8--12--10---8---10------------------------------12-10-8-------|
E|-----0--0--0--0----0---0----0-12-0-12-0-12-0-10-0-10--0----------------|
       .  .  .  .    .   .    .    .    .    .    .     .

e|------------------------------------------------------------------|
B|------------------------------------------------------------------|
G|------------------------------------------------------------------|
D|------------------------------------------------------------------|
A|--8---8---8---12---10---8---10---13--13--13---12---12---12--------|
E|----0---0---0----0----0---0----0----0---0---0----0----0-----------|


Both Guitars
e|----------------|
B|----------------|
G|----------------|
D|--8-----10------|
A|--8-----10------|
E|--8-0-0-10------|
      . .

Both Guitars
e|----------------------------------------------------|
B|----------------------------------------------------|
G|----------------------------------------------------|
D|----------------------------------------------------|
A|--3-00---3h5--3-00-----3-00---3h5--3-00---3-0-0-5---|
E|--3-00---3h5--3-00-----3-00---3h5--3-00---3-0-0-5---|
                                              . .

e|------------------------------------------------------------|
B|------------------------------------------------------------|
G|------------------------------------------------------------|
D|---------------------------------------------3h5p3----------|
A|--3-00-000----------------------00-000-----3h5-------5------|
E|--3-00-000-3p0-0-5p0-0-6p0--3p0-00-000--3h6-----------------|
         ...     .     .          .. ...

e|--------------------------------------------------|
B|--------------------------------------------------|
G|--------------------------------------------------|
D|--------------------------------------------------|
A|--3-00-000----------------------00-000--3-0-0-5---|
E|--3-00-000-3p0-0-5p0-0-6p0--3p0-00-000--3-0-0-5---|
         ...     .     .          .. ...    . .

e|------------------------------------------------------------|
B|------------------------------------------------------------|
G|------------------------------------------------------------|
D|---------------------------------------------3h5p3----------|
A|--3-00-000----------------------00-000-----3h5-------5------|
E|--3-00-000-3p0-0-5p0-0-6p0--3p0-00-000--3h6-----------------|
         ...     .     .          .. ...

e|--------------------------------------------------|
B|--------------------------------------------------|
G|--------------------------------------------------|
D|--------------------------------------------------|
A|--3-00-000----------------------00-000--3-0-0-5---|
E|--3-00-000-3p0-0-5p0-0-6p0--3p0-00-000--3-0-0-5---|
         ...     .     .          .. ...    . .
 Guitar 1
e|---------------------------------------------------|
B|---------------------------------------------------|
G|--10------9------10------14-----12-----15----------|
D|--x--x16--x-x16--x--x16--x--x8--x--x4--x--x4-------|
A|--8-------7------8-------12-----10-----13----------|
E|---------------------------------------------------|

e|------------------------------------------------|
B|------------------------------------------------|
G|--10------9------10------3-----9-----10~~-------|
D|--x--x16--x-x16--x--x16--x-x8--x-x8--x----------|
A|--8-------7------8-------1-----7-----8~~--------|
E|------------------------------------------------|

 Guitar 2
e|---------------------------------------------|
B|---------------------------------------------|
G|---------------------------------------------|
D|--0-------3-------8-------7---------10-------|
A|--0--x16--3--x16--8--x16--7--x8-----10--x4---|
E|--0-------3-------8-------7---------10-------|

e|------------------------------------------------|
B|------------------------------------------------|
G|------------------------------------------------|
D|--0-------3-------8-------7--------10------0~~--|
A|--0--x16--3--x16--8--x16--7--x8----10--x4--0~~--|
E|--0-------3-------8-------7--------10------0~~--|

e|----------------------------------------|
B|----------------------------------------|
G|----------------------------------------|
D|----------------------------------------|
A|--0000000-0000000-00--0000000-0000000---|
E|--0000000-0000000-00--0000000-0000000---|
    ....... ....... ..  ....... .......

e|--------------------------------------------|
B|--------------------------------------------|
G|--------------------------------------------|
D|--------------------------------------------|
A|--0~0~0~0--0000000-00--0~0~0~0-0000000-00---|
E|--0~0~0~0--0000000-00--0~0~0~0-0000000-00---|
    . . . .  ....... ..  . . . . ....... ..

Guitar 1 (tremelo pick)
e|-----------------------------|
B|-----------------------------|
G|-----------------------------|
D|-----------------------------|
A|--5--8--4--7--5--8--10--7----| x2
E|-----------------------------|

Added Guitar (guitar 3) (tremelo)
e|--------------------------------|
B|--------------------------------|
G|--------------------------------|
D|--------------------------------|
A|--8--12--7--10--8--12--13--10---| x2
E|--------------------------------|

Guitar 2
e|----------------------------------------|
B|----------------------------------------|
G|----------------------------------------|
D|----------------------------------------|
A|--0000000-000000-00--0000000-000000-00--| x2
E|--0000000-000000-00--0000000-000000-00--|
    ....... ...... ..  ....... ...... ..

Both Guitars
e|----------------------------------------------|
B|----------------------------------------------|
G|----------------------------------------------|
D|----------------------------------------------|
A|--0000000~-000000~-00~--0000000~-000000~-00~--|
E|--1111111~-111111~-11~--1111111~-111111~-11~--|

Guitar 1 (delay)
e|----------------------------------|
B|--7/10-8~-------------------------|
G|----------9-10-9~--5/7~/10~/12~~--|
D|----------------------------------|
A|----------------------------------|
E|----------------------------------|

Guitar 2 - fades out and plays with delay
e|------------15-------15----17---------------|
B|------15-15----15-15----15------------------|
G|--------------------------------------------|
D|--0~----------------------------------------| repeat as needed.
A|--0~----------------------------------------|
E|--0~----------------------------------------|

 Guitar 1
e|-------------------------------------|
B|-------------------------------------|
G|--10-----9------12-----15-----14-----|
D|--x--x8--x--x8--x--x8--x--x4--x--x4--|
A|--8------7------10-----13-----12-----|
E|-------------------------------------|


e|--------------------------------------|
B|--------------------------------------|
G|--10-----9------10-----3------5-------|
D|--x--x8--x--x8--x--x8--x--x4--x---x4--|
A|--8------7------8------1------3-------|
E|--------------------------------------|

 Guitar 2
e|--------------------------------------|
B|--------------------------------------|
G|--------------------------------------|
D|-12------10------8------3------5------|
A|-12--x8--10--x8--8--x8--3--x4--3--x4--|
E|-12------10------8------3------2------|

e|---------------------------------------|
B|---------------------------------------|
G|---------------------------------------|
D|-12------10------8------5------10------|
A|-12--x8--10--x8--8--x8--5--x4--10--x4--|
E|-12------10------8------5------10------|

e|--------------------------------------|
B|--------------------------------------|
G|--------------------------------------|
D|-12------10------8------3------5------|
A|-12--x8--10--x8--8--x8--3--x4--3--x4--|
E|-12------10------8------3------2------|

e|------------------------------------------|
B|------------------------------------------|
G|------------------------------------------|
D|-12------10------8------5------10-----0~--|
A|-12--x8--10--x8--8--x8--5--x4--10-x4--0~--|
E|-12------10------8------5------10-----0~--|


Guitar 1
e|---15-------15-------15----17-----------|
B|------15-15----15-15----15--------------|
G|----------------------------------------|
D|----------------------------------------| repeat till end
A|----------------------------------------|
E|----------------------------------------|

Guitar 2
e|--------|
B|--------|
G|--------|
D|--0~----|
A|--0~----|
E|--0~----|


 THIS IS SOMETHING I CAME UP WITH FOR AN ALTERNATE ENDING
 STARTS OF AT THE FIRST "WHOA" ENJOY!

e|--15/17-15~--12~-13~~--15/17-15~--17/20~-17~--|
B|----------------------------------------------|
G|----------------------------------------------|
D|----------------------------------------------|
A|----------------------------------------------|
E|----------------------------------------------|


please rate and comment :)
Show more