• Song:

    Lets Change The Channel

  • Artist:

    Asking Alexandria

sponsored links
Artist: Asking Alexandria				Tabbed by: Josey Stines
Song:	The Final Episode (Let's Change the Channel)
Album:	Stand Up and Scream
Year:	2009
Tuning:	Drop D
______________________________________________________________________________
0:00
E	--------0~-----------------
B	--------0~-----------------
G	--------0~-----------------
D	---0~---0~---(pickslide)---
A	---0~----------------------
D	---0~----------------------

0:08
E	-----------------------------------------
B	-----------------------------------------
G	-----------------------------------------
D	------------------pause------------------
A	---000000000000-0-------000000000000-0---
D	---000000000000-0-------000000000000-0---
             ************ *       ************ *
E	------------------------------------------------------------------------
B	------------------------------------------------------------------------
G	------------------------------------------------------------------------
D	------------------------------------------------------------------------
A	---8-----7-----10---8---7h8--888888888888-8--12-----10-----8---10---8---
D	-----0-0---0-0----0---0------888888888888-8-----8-8----8-8---8----8-----
               * *   * *    *   *      ************ *     * *    * *   *    *
E	--------------------------------------------
B	--------------------------------------------
G	--------------------------------------------
D	--------------------------------------------
A	---777777777777-7--10-----8-----7---8---7---
D	---777777777777-7-----7-7---7-7---7---7-----
             ************ *     * *   * *   *   *
E	-----------------------------------------
B	-----------------------------------------
G	-----------------------------------------
D	------------------pause------------------
A	---000000000000-0-------000000000000-0---
D	---000000000000-0-------000000000000-0---
             ************ *       ************ *
E	-----------------------------------------------------------------------------
B	-----------------------------------------------------------------------------
G	-----------------------------------------------------------------------------
D	--------------------------------------------------10-----8----------8--------
A	---12-----10-----13---12---10h12--888888888888-8---------------12-------12---
D	------0-0----0-0----0----0--------888888888888-8-----8-8---8-8----8---8------
                * *    * *    *    *        ************ *     * *   * *    *   

E	----------------------------------------------
B	----------------------------------------------
G	----------------------------------------------
D	--------------------8-----7----------7--------
A	---7777777777777-7--------------10-------10---
D	---7777777777777-7----7-7---7-7----7---7------
             ************* *    * *   * *    *   *
0:39
E	-------------------------------------------------|
B	-------------------------------------------------|
G	-------------------------------------------------|
D	-------------------------------------------------|
A	---8-----7-----10---8---7h8--8-----7-----10---8--|
D	-----0-0---0-0----0---0--------0-0---0-0----0---0|

---------------------------------------------------------
---------------------------------------------------------
---------------------------------------------------------
--------------------------------------------------------- x3
-7h8--12-----10-----8---10---8--10-----8-----7---8---7---
---------0-0----0-0---0----0-------0-0---0-0---0---0-----
               * *   * *    *   *        * *   * *    *   *
E	---------------------------------------------------------|
B	---------------------------------------------------------|
G	---------------------------------------------------------|
D	---------------------------------------------------------|
A       ---12-----10-----13---12---10h12--12-----10-----13---12--|
D	------0-0----0-0----0----0-----------0-0----0-0----0----0|

------------------------------------------------------------|
------------------------------------------------------------|
------------------------------------------------------------|
--------10-----8----------8-------8-----7----------7--------|
-10h12---------------12-------12--------------10-------10---|
-----------0-0---0-0----0---0-------0-0---0-0----0---0------|
                * *    * *    *    *           * *    * *    
1:09
E	---------------------------------------------
B	---------------------------------------------
G	---------------------4-(ph)------------------
D	---------------------------------------------
A	---000000000000-0--0--------000000000000-0---
D	---000000000000-0--0--------000000000000-0---
             ************ *  *        ************ *
E	------------------------------------------------------------------------
B	------------------------------------------------------------------------
G	------------------------------------------------------------------------
D	------------------------------------------------------------------------
A	---8-----7-----10---8---7h8--888888888888-8--12-----10-----8---10---8---
D	-----0-0---0-0----0---0------888888888888-8-----8-8----8-8---8----8-----
               * *   * *    *   *      ************ *     * *    * *   *    *
E	--------------------------------------------
B	--------------------------------------------
G	--------------------------------------------
D	--------------------------------------------
A	---777777777777-7--10-----8-----7---8---7---
D	---777777777777-7-----7-7---7-7---7---7-----
             ************ *     * *   * *   *   *
E	-----------------------------------------
B	-----------------------------------------
G	-----------------------------------------
D	------------------pause------------------
A	---000000000000-0-------000000000000-0---
D	---000000000000-0-------000000000000-0---
             ************ *       ************ *
E	-----------------------------------------------------------------------------
B	-----------------------------------------------------------------------------
G	-----------------------------------------------------------------------------
D	--------------------------------------------------10-----8----------8--------
A	---12-----10-----13---12---10h12--888888888888-8---------------12-------12---
D	------0-0----0-0----0----0--------888888888888-8-----8-8---8-8----8---8------
                * *    * *    *    *        ************ *     * *   * *    *   

E	----------------------------------------------
B	----------------------------------------------
G	----------------------------------------------
D	--------------------8-----7----------7--------
A	---7777777777777-7--------------10-------10---
D	---7777777777777-7----7-7---7-7----7---7------
             ************* *    * *   * *    *   *
1:39
E	-----------------------------------------------
B	-----------------------------------------------
G	-----------------------------------------------
D	-----------------------------------------------
A	---0-0000-0-0000-8-8888-8-8888-5-5555-5-5555---
D	---0-0000-0-0000-8-8888-8-8888-5-5555-5-5555---

E	--------------------------------------------------------------------------
B	--------------------------------------------------------------------------
G	--------------------------------------------------------------------------
D	-------------------------------------------------------------------------- x2
A	---------12---10h12-------12---10h12-------12---10h12-10h12-12-12-12p10---
D	---0-0-0----0-------0-0-0----0-------0-0-0----0---------------------------
             * * *    *       * * *    *       * * *    *
E	-----------------------------------------------------
B	-----------------------------------------------------
G	-----------------------------------------------------
D	-----------------------------------------------------
A	---0-0-0-8---7h8-0-0-0-8---7h8-0-0-0--0-0-0--0-0-0---
D	--- 0-0-0---0-----0-0-0---0-----0-0-0--0-0-0--0-0-0---
            * * *   *     * * *   *     * * *  * * *  * * *
2:01
E	---------------------------------------------------------------------------------
B	---------------------------------------------------------------------------------
G	---------------------------------------------------------------------------------
D	---------------------------------------------------------------------------------
A	---000-000--000-000--00000-0--0000-0-00-000-000--000-000--00000-0--00000-0-000---
D	---000-000--000-000--00000-0--0000-0-00-000-000--000-000--00000-0--00000-0-000---
             *** ***  *** ***  ***** *  **** * ** *** ***  *** ***  ***** *  ***** * ***
E	----------------------------------------------------------------------------
B	----------------------------------------------------------------------------
G	----------------------------------------------------------------------------
D	---------------------------------------------------------------------pause--
A	---000-000--000-000--00000-0--0000-0-00-000-000--000-000--00000-0--0--------
D	---000-000--000-000--00000-0--0000-0-00-000-000--000-000--00000-0--0--------
             *** ***  *** ***  ***** *  **** * ** *** ***  *** ***  ***** *  *
2:17
E	-----------------------------------------------
B	-----------------------------------------------
G	-----------------------------------------------
D	-----------------------------------------------
A	---00-00-00-00---000--00-00-00-00--pause-000---
D	---00-00-00-00---000--00-00-00-00--------000---
             ** ** ** **   ***  ** ** ** **        ***
E	-------------------------------------------------------------------
B	-------------------------------------------------------------------
G	-------------------------------------------------------------------
D	-------------------------------------------------------------------
A	---00-00-00-00-0~--000--00-00-00-00-0~--000--00-00-00-00-0~--000---
D	---00-00-00-00-0~--000--00-00-00-00-0~--000--00-00-00-00-0~--000---
             ** ** ** ** *   ***  ** ** ** ** *   ***  ** ** ** ** *   ***
2:31
E	-----------------------------------------------
B	-----------------------------------------------
G	-----------------------------------------------
D	-----------------------------------------------
A	---0-0000-0-0000-8-8888-8-8888-5-5555-5-5555---
D	---0-0000-0-0000-8-8888-8-8888-5-5555-5-5555---

E	--------------------------------------------------------------------------
B	--------------------------------------------------------------------------
G	--------------------------------------------------------------------------
D	-------------------------------------------------------------------------- x2
A	---------12---10h12-------12---10h12-------12---10h12-10h12-12-12-12p10---
D	---0-0-0----0-------0-0-0----0-------0-0-0----0---------------------------
             * * *    *       * * *    *       * * *    *
2:50
E	-----------------------------------------
B	-----------------------------------------
G	--------------------------------5-(ph)---
D	---(Gtr.1)--(Gtr.2)----------------------
A	---00-00-0--00-00-0-pause-00-00----------
D	---00-00-0--00-00-0-------00-00----------
             ** ** *  ** ** *       ** **
2:54
E	|----------------------------------------------|
B	|----------------------------------------------|
G	|----------------------------------11-8--------|
D	|-------------------------------10------10-----|
A	|---00-00-0--00-00-0--00-00-0-8------------11--|
D	|---00-00-0--00-00-0--00-00-0------------------|

----------------------------------------------|
----------------------------------------------|
--------------------------------14-11---------|
-----------------------------13-------13------| x2
00-00-0--00-00-0--00-00-0-12-------------14---|
00-00-0--00-00-0--00-00-0---------------------|
             ** ** *  ** ** *  ** ** *                  ** ** *  ** ** *  ** ** *
3:10
E	--------
B	--------
G	--------
D	--------
A	---0~---
D	---0~---

3:33
E	----------------------------------------------------------------------------
B	----------------------------------------------------------------------------
G	----------------------------------------------------------------------------
D	----------------------------------------------------------------------------
A	---000-000-00~0-00~0--000-000-00~0-00~0--000-000-0~-00~0--000-000-0~-00~0---
D	---000-000-00~0-00~0--000-000-00~0-00~0--000-000-0~-00~0--000-000-0~-00~0---
             *** *** ** * ** *  *** *** ** * ** *  *** *** *  ** *  *** *** *  ** *
E	-----------------------------------------------------------------------
B	-----------------------------------------------------------------------
G	-----------------------------------------------------------------------
D	-----------------------------------------------------------------------
A	---000-000-00~0-00~0--000-000-00~0-00~0--000-000-0~-000-000-0~-0-0-0---
D	---000-000-00~0-00~0--000-000-00~0-00~0--000-000-0~-000-000-0~-0-0-0---
             *** *** ** * ** *  *** *** ** * ** *  *** *** *  *** *** * 

Legend:
~	Let Note Ring
*	Palm Muted
h	Hammer-on
ph	Pinch Harmonic
p	Pull-Off

END
Show more
sponsored links
sponsored links