• Song:

    Morte Et Dabo

  • Artist:

    Asking Alexandria

Asking Alexandria: Morte et Dabo
Enjoy >:D

Intro 0:24-0:42

f|------------------------------------------------------------------|
c|------------------------------------------------------------------|
g|------------------------------------------------------------------|
c|-0000000-0000-00000000---0000-0000000-0000-00000000--444444333333-|
                                                                    X4
0:42-0:52
f|------------------------------------------------------------------|
c|------------------------------------------------------------------|
g|------------------------------------------------------------------|
c|-1-1-1-11-11-1-1-1-1-1-11-11-1-1---1-1-1-11-11-1-1-1-1-1-11-11-1-1|

0:52-1:10
f|------------------------------------------------------------------|
c|------------------------------------------------------------------|
g|------------------------------------------------------------------|
c|-0000000-0000-00000000---0000-0000000-0000-00000000--444444333333-|
                                                                    X4
1:12-1:20
f|------------------------------------------------------------------|
c|------------------------------------------------------------------|
g|888888888888888888888888888887777777775555555555555333333377777777|
c|------------------------------------------------------------------|

1:20-1:30
f|------------------------------------------------------------------|
c|------------------------------------------------------------------|
g|888888888888888888888888888887777777775555555555555333333311111115|
c|------------------------------------------------------------------|

1:31-1:43
f|--------------------------------------------------|
c|--------------------------------------------------|
g|--------------------------------------------------|
c|00000000-0000-00000000-0000-00000000-0000-00000000|
                                                     X2
1:44-1:50
f|--------------------------------------------------|
c|--------------------------------------------------|
g|--------------------------------------------------|
c|00000000--00000000--000000000-10101010666699995555|

1:50-2:09
f|-------------------------------------------------------------------------
c|-------------------------------------------------------------------------
g|-------------------------------------------------------------------------
c|00000000--00000000--00000000--0-0-00-00000000-0000-00000000-0000-00000000  

----------------------------------------------------------------------------|
----------------------------------------------------------------------------|
----------------------------------------------------------------------------|
-0000-10101010666699995555-00000000-0000-00000000-00-00000000-0000-000-0000-|

2:11-2:29
f|-----------------------------------------------------------------------|
c|-----------------------------------------------------------------------|
g|-----------------------------------------------------------------------|
c|-0-0----0-0-0-00-0-0-0---0-0-00-00-0-1-1---1-1-1-11-1-1-1---1-1-1-11-1-|

2:30-2:39
f|-----------------------------------------------------------------------|
c|-----------------------------------------------------------------------|
g|-----------------------------------------------------------------------|
c|000000000000000000000000000x-----000000000000000000000000000x---0-0-0-0|
                                                                          X2
2:39-2:43
f|-----------------------------------------------------------------------|
c|-----------------------------------------------------------------------|
g|-----------------------------------------------------------------------|
c|0000000000000000000000000000-----0000000000000000000000000000---0-0-0-0|

2:43-2:48
f|-----------------------------------------------------------------------|
c|-----------------------------------------------------------------------|
g|-----------------------------------------------------------------------|
c|000000000000000000000000000x-----000000000000000000000000000x---0-0-0-0|

2:51-3:09
f|------------------------------------------------------------------|
c|------------------------------------------------------------------|
g|888888888888888888888888888887777777775555555555555333333377777777|
c|------------------------------------------------------------------|
 

f|------------------------------------------------------------------|
c|------------------------------------------------------------------|
g|888888888888888888888888888887777777775555555555555333333311111115|
c|------------------------------------------------------------------|

3:09-3:27
f|-----------------------------------------------|
c|-----------------------------------------------|
g|-----------------------------------------------|
c|---------0-00-0-000------0-00-0-000--------0-00|

3:27
f|----------------------------------------------------------------|
c|----------------------------------------------------------------|
g|----------------------------------------------------------------|
c|8-8-8-8-8-8-8-8-5-5-5-5-5-5-5-5-7-7-7-7-7-7-7-7-3-3-3-3-3-3-3-3-|


                                                                      2nd 
f|-------------------------------------------------------------------|---|
c|-------------------------------------------------------------------|---|
g|-------------------------------------------------------------------|---|
c|8-8-8-8-8-8-8-8-5-5-5-5-5-5-5-5-7-7-7-7-7-7-7-7-10-10-10-10-5-5-5-5|--8|
                                                                          X2


I did the best i could with difficult tabs.
Please send me feedback on the tabs and what you think of them.
Show more