• Song:

    Someone Somewhere

  • Artist:

    Asking Alexandria

-------------------------------------------------------------------------------
	Someone, Somewhere - Asking Alexandria
-------------------------------------------------------------------------------

Tuning: Drop C

  Intro
F|------------------------|   
C|------------------------|   
G|------------------------|   
C|-5~-----8~-----3~----0~-|x2 
  Interlude Riff
F|--------------------------------------------|
C|--------------------------------------------|
G|--------------------------------------------|
C|-5--555-555--555-55-5--8--888-888--888-8-8\-|

F|--------------------------------------------|
C|--------------------------------------------|
G|--------------------------------------------|
C|-3--333-333--333-33-3--0--000-000--000-0-0~-|
  Verse
F|----------------------------------------------------------------|
C|----------------------------------------------------------------|
G|--------------------------------------------------------3-------|
C|-5555555555555555888888888888888333333333333333330000005-530530-|

F|----------------------------------------------------------------|
C|----------------------------------------------------------------|
G|----------------------------------------------------------------|
C|-55555555555555558888888888888888333333333333333300000000000000-|
  Chorus
F|-------------------------------------------------------|
C|-------------------------------------------------------|
G|--------------------------------------10h12-----10h12--|
C|-8888888888888888101010101010101010h12-----10h12-------|
        (16)               (8)  
F|------------------------------------------------------------------|
C|------------------------------------------------------------------|
G|------------------------------------------------------------------|
C|-1212121212121212121212121212121210101010101010101010101010101010-|
                (16)                            (16)
F|--------------------------------------------------------|
C|--------------------------------------------------------|
G|-----------------------------------12-10-------12-10----|
C|-8888888888888888101010101010101010------12-10-------12-|
        (16)               (8)  
F|------------------------------------------------------------------|
C|------------------------------------------------------------------|
G|------------------------------------------------------------------|
C|-1212121212121212121212121212121210101010101010101010101010101010-|
                (16)                            (16)
  Verse
F|----------------------------------------------------------------|
C|----------------------------------------------------------------|
G|--------------------------------------------------------3-------|
C|-5555555555555555888888888888888333333333333333330000005-530530-|
  Interlude Riff
F|--------------------------------------------|
C|--------------------------------------------|
G|--------------------------------------------|
C|-5--555-555--555-55-5--8--888-888--888-8-8\-|

F|--------------------------------------------|
C|--------------------------------------------|
G|--------------------------------------------|
C|-3--333-333--333-33-3--0--000-000--000-0-0~-|
  Chorus
F|-------------------------------------------------------|
C|-------------------------------------------------------|
G|--------------------------------------10h12-----10h12--|
C|-8888888888888888101010101010101010h12-----10h12-------|
        (16)               (8)  
F|------------------------------------------------------------------|
C|------------------------------------------------------------------|
G|------------------------------------------------------------------|
C|-1212121212121212121212121212121210101010101010101010101010101010-|
                (16)                            (16)
F|--------------------------------------------------------|
C|--------------------------------------------------------|
G|-----------------------------------12-10-------12-10----|
C|-8888888888888888101010101010101010------12-10-------12-|
        (16)               (8)    
F|------------------------------------------------------------------|
C|------------------------------------------------------------------|
G|------------------------------------------------------------------|
C|-1212121212121212121212121212121210101010101010101010101010101010-|
                (16)                            (16)
  Bridge
F|-----------------------------------------------------------|
C|-----------------------------------------------------------|
G|-----------------------------------------------------------|
C|-0~---0-0-0-0---0-0---00-0------0~---0-0-0-0---0-0---0-0-0-|

F|------------------------------------------|
C|------------------------------------------|
G|------------------------------------------|
C|-0~---0-0-0-0---0-0---00-0--5-5-0-8--0-12-|

F|-----------------------------------------------------------|
C|-----------------------------------------------------------|
G|-----------------------------------------------------------|
C|-0~---0-0-0-0---0-0---00-0------0~---0-0-0-0---0-0---0-0-0-|

F|-------------------------------------|
C|-------------------------------------|
G|-------------------------------------|
C|-0~---0-0-0-0---0-0---00-0--5-5---8~-|
  Chorus
F|-------------------------------------------------------|
C|-------------------------------------------------------|
G|--------------------------------------10h12-----10h12--|
C|-8888888888888888101010101010101010h12-----10h12-------|
        (16)               (8)  
F|------------------------------------------------------------------|
C|------------------------------------------------------------------|
G|------------------------------------------------------------------|
C|-1212121212121212121212121212121210101010101010101010101010101010-|
                (16)                            (16)
F|--------------------------------------------------------|
C|--------------------------------------------------------|
G|-----------------------------------12-10-------12-10----|
C|-8888888888888888101010101010101010------12-10-------12-|
        (16)               (8)    
F|------------------------------------------------------------------|
C|------------------------------------------------------------------|
G|------------------------------------------------------------------|
C|-1212121212121212121212121212121210101010101010101010101010101010-|
                (16)                            (16)
F|-------------------------------------------------------|
C|-------------------------------------------------------|
G|--------------------------------------10h12-----10h12--|
C|-8888888888888888101010101010101010h12-----10h12-------|
        (16)               (8)  
F|------------------------------------------------------------------|
C|------------------------------------------------------------------|
G|------------------------------------------------------------------|
C|-1212121212121212121212121212121210101010101010101010101010101010-|
                (16)                            (16)
F|-------------------------------------------------------|
C|-------------------------------------------------------|
G|--------------------------------------10h12-----10h12--|
C|-8888888888888888101010101010101010h12-----10h12-------|
        (16)               (8)  
F|---------------------------------------------------------------------------|
C|---------------------------------------------------------------------------|
G|---------------------12-10-------12-10-------------------------------------|
C|-1212121212121212-10-------12-10-------12-10101010101010101010101010101010-|
          (8)                                             (16)
  Outro
F|---------------------------------------------------------|
C|---------------------------------------------------------|
G|---------------------------------------------------------|
C|-0~---0-0-0-0---0-0---00-0------0~---0-0-0-0---0-0---0-0-|

| /  slide up
| \  slide down
| h  hammer-on
| p  pull-off
| ~  let note ring
| +  harmonic
| x  Mute note
===============================================================================
Show more