• Song:

    Vermin

  • Artist:

    Asphyx

  • Album:

    The Rack (re-issue + Bo...

Asphyx - Vermin
/ \= slide up & down
Tuning= two steps down D G C F A D
~ = viberate 
                                           8x
D|-------------------------------------------|
G|-------------------------------------------|
C|-------------------------------------------|
F|-------------------------------------------|
A|-2-----------5---------------------5/6-5\3-|
D|-0-0-0-0-0-0-3-0-0-0-0-0-0-0-0-0-0-3/4-3\1-|

  Slower part, palm mute the 0's                             8x
D|-----------------------------------------------------------|
G|-----------------------------------------------------------|
C|-----------------------------------------------------------|
F|-----------------------------------------------------------|
A|-2-------------5-------------(5)/6-(5)/6-3-------------5-4-|
D|-0-0-0-0-0-0-0-3-0-0-0-0-0-0-(3)/4-(3)/4-1-0-0-0-0-0-0-3-2-|

                                           8x
D|-------------------------------------------|
G|-------------------------------------------|
C|-------------------------------------------|
F|-------------------------------------------|
A|-2-----------5---------------------5/6-5\3-|
D|-0-0-0-0-0-0-3-0-0-0-0-0-0-0-0-0-0-3/4-3\1-|

  Palm mute the 0's                                            4x
D|-------------------------------------------------------------|
G|-------------------------------------------------------------|
C|-------------------------------------------------------------|
F|-------------------------------5--------------5--------------|
A|-7--------------7--------------------------------------------|
D|--0-000-000-000--0-000-000-000--0-000-000-000--0-000-000-000-|

  This part is very fast!           4x
D|----------------------------------|
G|----------------------------------|
C|----------------------------------|
F|----------------------------------|
A|--------------------------4--7--8-|
D|-222222222222222222222222-4--5--6-|

  Palm mute the 0's again                   8x
D|--------------------------------------------|
G|--------------------------------------------|
C|--------------------------------------------|
F|--------------------------------------------|
A|----------------------------------------3/4-|
D|-0-0-0-0-5~-0-0-0-0-3~0-0-0-0-2~0-0-0-0-1/2-|

                                           8x
D|-------------------------------------------|
G|-------------------------------------------|
C|-------------------------------------------|
F|-------------------------------------------|
A|-2-----------5---------------------5/6-5\3-|
D|-0-0-0-0-0-0-3-0-0-0-0-0-0-0-0-0-0-3/4-3\1-|

  Symptoms of the fulminant deseases
  The number of infected ones increases!!                  8x
D|-----------------------------------------------------------|
G|-----------------------------------------------------------|
C|-----------------------------------------------------------|
F|-----------------------------------------------------------|
A|-2-------------5-------------(5)/6-(5)/6-3-------------5-4-|
D|-0-0-0-0-0-0-0-3-0-0-0-0-0-0-(3)/4-(3)/4-1-0-0-0-0-0-0-3-2-|

  Palm mute the 0's again                  10x
D|--------------------------------------------|
G|--------------------------------------------|
C|--------------------------------------------|
F|--------------------------------------------|
A|----------------------------------------3/4-|
D|-0-0-0-0-5~-0-0-0-0-3~0-0-0-0-2~0-0-0-0-1/2-|
Show more