• Song:

    Becoming The Bull

  • Artist:

    Atreyu

  • Album:

    Lead Sails Paper Anchor

Becoming the Bull
By Atreyu
Tabbed by Atreyu420

Tuning: Drop C
(CGCBAD)



Key:
 Artifical Harmonic on x
\x  Slide down from x
/x  Slide up to x
p   Pull Off
h   Hammer On
Pm. Palm Mute
T   Tap
b   Bend
br  BendRelease

Intro
|-------------------------------|
|-------------------------------|
|-------------------------------|
|-------------------------------|
|-------------------------------|
|--------\15--------------------|

                    x4
|--------------------|---------------|---------|
|--------------------|---------------|---------|
|--------------------|---------------|---------|   
|--------------8-7-6-|---------------|-0003----|  
|--0-0--8-5--5-------|-8--10-8-------|-0003----|  
|--0-0---------------|---------10--8-|-0003----|
pm ...                                 ...
                    x4
|--------------------|---------------|---------|
|--------------------|---------------|---------|
|--------------------|---------------|---------|   
|--------------8-7-6-|---------------|-000-----|  
|--0-0--8-5--5-------|-8--10-8-------|-000-----|  
|--0-0---------------|---------10--8-|-000-<3>-|
Pm ...                                 ...

Verse                x4
|--------------------|---------------|---------|
|--------------------|---------------|---------|
|--------------------|---------------|---------|   
|--------------8-7-6-|---------------|-000-----|  
|--0-0--8-5--5-------|-8--10-8-------|-000-----|  
|--0-0---------------|---------10--8-|-000-<3>-|

Pre-Chorus
|--------------------|-------------------|
|--------------------|-------------------|
|--------------------|-------------------|
|--------------------|-------------------|
|--------------------|-------------------|
|--8-5-0-8-5-0-8-5-0-|-8-5-0-8-5-0-8-5-0-|

Chorus                       x2
|------------------------------------------------------------------|
|------------------------------------------------------------------|
|-----------------5-5-5-5-------------------------5-5-5-5----------|
|-8-8-8-8-0-0-0-0-5-5-5-5-5-5-5-5-8-8-8-8-0-0-0-0-5-5-5-5-5-5-5-5--|
|-8-8-8-8-0-0-0-0-3-3-3-3-5-5-5-5-8-8-8-8-0-0-0-0-3-3-3-3-5-5-5-5--|
|-8-8-8-8-0-0-0-0---------5-5-5-5-8-8-8-8-0-0-0-0---------2-2-2-2--|

Post Chorus
|--------------------|----------------------|
|--------------------|----------------------|
|--------------------|----------------------|   
|--------------8-7-6-|---------------0003---|  
|--0-0--8-5--5-------|-8--10-8-------0003---|  
|--0-0---------------|---------10-8--0003---|
pm ...

Verse
|----------------------|------------------------------|
|----------------------|------------------------------|
|----------------------|------------------------------|   
|----------------------|----------------------000-----|  both guitars then 2nd time just 
|--0-0--0-0--0--00-0-0-|--0-0--0-0--0--00-0-0-000-----|  guitar 2
|--0-0--0-0--0--00-0-0-|--0-0--0-0--0--00-0-0-000-<3>-|
pm . .  . .  .  .. . .    . .  . .  .  .. . . ...

|--------------------|------------------|
|--------------------|------------------|
|--------------------|------------------|x2   
|--------------8-7-6-|------------------|  only guitar 1
|--0-0--8-5--5-------|-8--10-8----------|  
|--0-0---------------|---------10--8----|
pm ...

Pre-Chorus
|--------------|-------------|
|--------------|-------------|
|--------------|-------------|
|--------------|-------------|
|--------------|-------------|
|--8-5-0-8-5-0-|-8-5-0-8-5-0-|

Chorus                             x2
|------------------------------------------------------------------|
|------------------------------------------------------------------|
|-----------------5-5-5-5-------------------------5-5-5-5----------|
|-8-8-8-8-0-0-0-0-5-5-5-5-5-5-5-5-8-8-8-8-0-0-0-0-5-5-5-5-5-5-5-5--|
|-8-8-8-8-0-0-0-0-3-3-3-3-5-5-5-5-8-8-8-8-0-0-0-0-3-3-3-3-5-5-5-5--|
|-8-8-8-8-0-0-0-0---------5-5-5-5-8-8-8-8-0-0-0-0---------2-2-2-2--|

Post Chorus
|--------------------|------------------|
|--------------------|------------------|
|--------------------|------------------|   
|--------------8-7-6-|------------------|  
|--0-0--8-5--5-------|-8--10-8----------|  
|--0-0---------------|---------10--8----|
pm ...

BREAKDOWN

Interlude                 x3
|--------------------------|-----------------------------|
|--------------------------|-----------------------------|
|--------------------------|-----------------------------|
|--------------------------|-----------------------------|
|--------------------------|-----------------------------|
|--8-5-0-8-5-0-8-5-0-8-5-0-|-10-7-0-10-7-0-10-7-0-10-7-0-|

OutChorus                       x2
|------------------------------------------------------------------|
|------------------------------------------------------------------|
|-----------------5-5-5-5-------------------------5-5-5-5----------|
|-8-8-8-8-0-0-0-0-5-5-5-5-5-5-5-5-8-8-8-8-0-0-0-0-5-5-5-5-5-5-5-5--|
|-8-8-8-8-0-0-0-0-3-3-3-3-5-5-5-5-8-8-8-8-0-0-0-0-3-3-3-3-5-5-5-5--|
|-8-8-8-8-0-0-0-0---------5-5-5-5-8-8-8-8-0-0-0-0---------2-2-2-2--|

|---------------------------------------------------------------|
|---------------------------------------------------------------|
|---------------------------------5-5-5---5-5-5---7-7-7---7-7-7-|
|-8-8-8---8-8-8---0-0-0---0-0-0---5-5-5---5-5-5---7-7-7---7-7-7-|
|-8-8-8---8-8-8---0-0-0---0-0-0---3-3-3---3-3-3---5-5-5---5-5-5-|
|-8-8-8---8-8-8---0-0-0---0-0-0---------------------------------|

Outro               x4
|--------------------|--------------|--------|
|--------------------|--------------|--------|
|--------------------|--------------|--------|  
|--------------8-7-6-|--------------|-0003---|  
|--0-0--8-5--5-------|-8--10-8------|-0003---|  
|--0-0---------------|---------10-8-|-0003---|
Pm . .
Show more