• Song:

    Bleeding Mascara

  • Artist:

    Atreyu

  • Album:

    The Curse (Re-Issue)

[Bass intro, come in second time]

Intro
D|-------------------------------------------------------------------------|
A|-------------------------------------------------------------------------|
F|-------------------------------------------------------------------------|
C|-0~~--3--6--5~~--8~~---0~~--3--6--5----5--3------------------------------|
G|-0~~--3--6--5~~--8~~---0~~--3--6--5----5--3------------------------------|
C|-0~~--3--6--5~~--8~~---0~~--3--6--5----5--3------------------------------|

Verso x2
D|--------------------------------------|----------------------------------|
A|--------------------------------------|----------------------------------|
F|--------------------------------------|----------------------------------|
C|-00--8p7--5p3--00--8p7--5h3--00--8~~--|--1~~-----------------------------|
G|-00--8p7--5p3--00--8p7--5h3--00--8~~--|--1~~-----------------------------|
C|-00--8p7--5p3--00--8p7--5h3--00--8~~--|--1~~-----------------------------|
   xx            xx            xx        Second time end on this
D|-------------------------------------------------------------------------|
A|------------------------|------------------------------------------------|
F|-----7/8------11/12-----|-10-10-10-10-10-10-10-10--7--7--7--7--7--7--7--7|
C|-00--x-x--00--x--x--000-|-x--x--x--x--x--x--x--x---x--x--x--x--x--x--x--x|
G|-00--5/6--00--(b9)/10-000-|-8--8--8--8--8--8--8--8---5--5--5--5--5--5--5--5|
C|-00-------00--------000-|------------------------------------------------|
   xx       xx        xxx  Do this 1 time first time, 2 times second time.

Refr?o x4 
D|-------------------------------------|-----------------------------------|
A|-------------------------------------|-----------------------------------|
F|-------------------------------------|-----------------------------------|
C|-5-5-5-5--8-8-8-8--0-0-0-0--3-3-3-3--|-5-5-5-5--8-8-8-8------------------|
G|-5-5-5-5--8-8-8-8--0-0-0-0--3-3-3-3--|-5-5-5-5--8-8-8-8------------------|
C|-5-5-5-5--8-8-8-8--0-0-0-0--3-3-3-3--|-5-5-5-5--8-8-8-8------------------|
                                        Forth time end on this
[Repete Verso]

Rhythm during solo x6
D|-------------------------------------------------------------------------|
A|-------------------------------------------------------------------------|
F|-------------------------------------------------------------------------|
C|-00000-00000--3h6-3h5--0-0-0-0-0-0-0--3h6-3h5----------------------------|
G|-00000-00000--3h6-3h5--0-0-0-0-0-0-0--3h6-3h5----------------------------|
C|-00000-00000--3h6-3h5--0-0-0-0-0-0-0--3h6-3h5----------------------------|
   xxxxx xxxxx           x x x x x x x

[Repeat Refr?o]

Outro
D|-------------------------------------------------------------------------|
A|-------------------------------------------------------------------------|
F|-------------------------------------------------------------------------|
C|-0~~-8~~--5-5-5-5-5-5--3-3-3-3-3-3--5-5-5-5--3-2-0~~---------------------|
G|-0~~-8~~--5-5-5-5-5-5--3-3-3-3-3-3--5-5-5-5--3-2-0~~---------------------|
C|-0~~-8~~--5-5-5-5-5-5--3-3-3-3-3-3--5-5-5-5--3-2-0~~---------------------|
Show more