• Song:

    Falling Down

  • Artist:

    Atreyu

  • Album:

    Lead Sails Paper Anchor

Atreyu
Falling Down
Lead Sails Paper Anchor


hey this is my first tab but im pretty sure its right there might already b a tab like this already out there but idk

I think its drop c

Verse
|-----------------------|---------------------|
|-----------------------|---------------------|
|-----------------------|---------------------|
|-----------------------|---------------------|
|-----------------------|---------------5-3---|
|-7-7-5-7-7-5-7-7-5-7s10|-6-6-6-6-0-3-6-----6-|

Chorus
|-----------------------|
|-----------------------|
|-5--5--2-----2--5------|listen to song for how many times you strum
|-3--5--2--3--2--5--0---|*2
|----3--0--3--0--3--0---|
|----------3--------0---|

Bridge (or whatever its called)
|------------------------|
|------------------------|
|------------------------|
|------------------------|*3 i think
|-7-7---7-7---------3----|
|-7-7---7-7---0-3-5------|

|--------------------|
|--------------12----|
|--------------14b---|
|--------------------|
|-7-7---0-0-0--------|
|-7-7---0-0-0--------|

solo theres a good solo tab out so look at that
Show more