• Song:

    Lip Gloss & Black

  • Artist:

    Atreyu

Song: Lip Gloss & Black
Band: Atreyu
Album: Suicide Notes And Butterfly Kisses
Tunning: Down A Whole Step Drop "C" (CGCF - Low to High)
Tabber: ME Josh

Index:
h = hammer-on
p = pull-off
... = palm muted
/ or  = slide up or down
(x) = tied note
~ = let note ring/held note
x = dead note
v = vibrato



Intro:
Lead Guitar...
Rhythm & Lead Guitar AND Drums...

Verse 1:
F|-------------|-------------|--------------|-------------|
C|-------------|-------------|--------------|-------------|
G|-------------|-------------|--------------|-------------|
C|-0--0--0--0--|-8--8--8--8--|-0--0--0--10--|-8--8--8--3--|

F|-------------|-------------|--------------|-------------|
C|-------------|-------------|--------------|-------------|
G|-------------|-------------|--------------|-------------|
C|-0--0--0--0--|-8--8--8--8--|-0--0--0--10--|-8--8--8--3--|

F|-------------|-------------|--------------|-------------|
C|-------------|-------------|--------------|-------------|
G|-------------|-------------|--------------|-------------|
C|-0--0--0--0--|-8--8--8--8--|-0--0--0--10--|-8--8--8--3--|

F|-------------|-------------|--------------|-------------|
C|-------------|-------------|--------------|-------------|
G|-------------|-------------|--------------|-------------|
C|-0--0--0--0--|-8--8--8--8--|-0--0--0--10--|-8--8--8--3--|

Chorus:
F|-------------|-----------------|------------|-------------|
C|-------------|-----------------|------------|-------------|
G|-------------|-----------------|------------|-------------|
C|-8----8-8-8--|-10----10-10-10--|-0----------|-(0)---------|

F|-------------|-----------------|----------------|----------------|
C|-------------|-----------------|----------------|----------------|
G|-------------|-----------------|---------85----|---------85----|
C|-8----8-8-8--|-10----10-10-10--|-0-0-0-0-----0--|-0-0-0-0-----0--|
                                   .......     .    .......     .

F|-------------|-----------------|------------|-------------|
C|-------------|-----------------|------------|-------------|
G|-------------|-----------------|------------|-------------|
C|-8----8-8-8--|-10----10-10-10--|-0----------|-(0)---------|

F|-------------|-----------------|----------|----------------|
C|-------------|-----------------|----------|----------------|
G|-------------|-----------------|----------|----------------|
C|-8----8-8-8--|-10----10-10-10--|-7--------|-(7)----7-10-0--|

Verse 2:(nothing till lead joins back in)
F|----------------|------------|----------|------------|---------------|
C|----------------|------------|----------|------------|---------------|
G|----------------|------------|----------|------------|---------------|
C|-10-10--11-11-0-|-(0)-0--0-8-|-8-8--8-3-|-(3)-3--3-3-|-(3)-3--2-2-0--|

F|------------|----------|-------------|----------------|------------|---------|
C|------------|----------|-------------|----------------|------------|---------|
G|------------|----------|-------------|----------------|------------|---------|
C|-(0)-0--0-8-|-8-8--8-3-|-(3)-3--3-10-|-10-10--11-11-0-|-(0)-0--0-8-|-8-8--8--|

Bridge Part 1:(now they DO play 2's NOT 0's and live they interchange between 2 & 3!!)
F|-----------------------------|-----------------------------|
C|-----------------------------|-----------------------------|
G|-----------------------------|-----------------------------|
C|-2-2-2--2-2-2--2-2-2--2-2-2--|-2-2-2--2-2-2--2-2-2--2-2-2--|
   .....  .....  .....  .....    .....  .....  .....  .....

F|-----------------------------|-----------------------------|
C|-----------------------------|-----------------------------|
G|-----------------------------|-----------------------------|
C|-2-2-2--2-2-2--2-2-2--2-2-2--|-2-2-2--2-2-2--2-2-2--2-2-2--|
   .....  .....  .....  .....    .....  .....  .....  .....

F|-----------------------------|-----------------------------|
C|-----------------------------|-----------------------------|
G|-----------------------------|-----------------------------|
C|-2-2-2--2-2-2--2-2-2--2-2-2--|-2-2-2--2-2-2--2-2-2--2-2-2--|
   .....  .....  .....  .....    .....  .....  .....  .....

F|-----------------------------|-----------------------------|
C|-----------------------------|-----------------------------|
G|-----------------------------|-----------------------------|
C|-2-2-2--2-2-2--2-2-2--2-2-2--|-2-2-2--2-2-2--2-2-2--2-2-2--|
   .....  .....  .....  .....    .....  .....  .....  .....

F|-----------------------------|-----------------------------|
C|-----------------------------|-----------------------------|
G|-----------------------------|-----------------------------|
C|-2-2-2--2-2-2--2-2-2--2-2-2--|-2-2-2--2-2-2--2-2-2--2-2-2--|
   .....  .....  .....  .....    .....  .....  .....  .....

F|-----------------------------|-----------------------------|
C|-----------------------------|-----------------------------|
G|-----------------------------|-----------------------------|
C|-2-2-2--2-2-2--2-2-2--2-2-2--|-2-2-2--2-2-2--2-2-2--2-2-2--|
   .....  .....  .....  .....    .....  .....  .....  .....

F|-----------------------------|-----------------------------|
C|-----------------------------|-----------------------------|
G|-----------------------------|-----------------------------|
C|-2-2-2--2-2-2--2-2-2--2-2-2--|-2-2-2--2-2-2--2-2-2--2-2-2--|
   .....  .....  .....  .....    .....  .....  .....  .....

F|-----------------------------|----------|
C|-----------------------------|----------|
G|-----------------------------|--[rest]--|
C|-2-2-2--2-2-2--2-2-2--2-2-2--|----------|
   .....  .....  .....  .....   

Bridge Part 2: 
F|----------|-----------|-----------|--------------|
C|----------|-----------|-----------|--------------|
G|----------|-----------|-----------|-------8-7-3--|
C|-0--------|-(0)-------|-(0)-------|-(0)----------|

F|----------|----------|----------|------------|
C|----------|----------|----------|------------|
G|----------|----------|----------|-----8-7-3--|
C|-0--------|-8--------|-0--------|-8----------|

F|----------|----------|----------|------------|
C|----------|----------|----------|------------|
G|----------|----------|----------|-----8-7-3--|
C|-0--------|-8--------|-0--------|-8----------|

F|----------|----------|----------|------------|
C|----------|----------|----------|------------|
G|----------|----------|----------|-----8-7-3--|
C|-0--------|-8--------|-0--------|-8----------|

F|----------|----------|----------|------------|
C|----------|----------|----------|------------|
G|----------|----------|----------|-----8-7-3--|
C|-0--------|-8--------|-0--------|-8----------|

Chorus:
F|-------------|-----------------|------------|-------------|
C|-------------|-----------------|------------|-------------|
G|-------------|-----------------|------------|-------------|
C|-8----8-8-8--|-10----10-10-10--|-0----------|-(0)---------|

F|-------------|-----------------|----------------|----------------|
C|-------------|-----------------|----------------|----------------|
G|-------------|-----------------|---------85----|---------85----|
C|-8----8-8-8--|-10----10-10-10--|-0-0-0-0-----0--|-0-0-0-0-----0--|

F|-------------|-----------------|------------|-------------|
C|-------------|-----------------|------------|-------------|
G|-------------|-----------------|------------|-------------|
C|-8----8-8-8--|-10----10-10-10--|-0----------|-(0)---------|

F|-------------|-----------------|----------|-----------|-----------|-----------|
C|-------------|-----------------|----------|-----------|-----------|-----------|
G|-------------|-----------------|----------|-----------|-----------|-----------|
C|-8----8-8-8--|-10----10-10-10--|-0--------|-(0)-------|-(0)-------|-(0)-------|


Breakdown:
F|----------|-----------|-----------|--------------|
C|----------|-----------|-----------|--------------|
G|----------|-----------|-----------|-------8-7-3--|
C|-0--------|-----------|-----------|--------------|

F|----------------|----------------|----------------|----------------|
C|----------------|----------------|----------------|----------------|
G|---------85----|---------85----|---------85----|---------8-7-3--|
C|-0-0-0-0-----0--|-0-0-0-0-----0--|-0-0-0-0-----0--|-0-0-0-0--------|
   .......     .    .......     .    .......     .    .......

F|----------------|----------------|----------------|----------------|
C|----------------|----------------|----------------|----------------|
G|---------85----|---------85----|---------85----|---------8-7-3--|
C|-0-0-0-0-----0--|-0-0-0-0-----0--|-0-0-0-0-----0--|-0-0-0-0--------|
   .......     .    .......     .    .......     .    .......

F|----------------|----------------|----------------|----------------|
C|----------------|----------------|----------------|----------------|
G|---------85----|---------85----|---------85----|---------8-7-3--|
C|-0-0-0-0-----0--|-0-0-0-0-----0--|-0-0-0-0-----0--|-0-0-0-0--------|
   .......     .    .......     .    .......     .    .......

F|----------------|----------------|----------------|-----------|
C|----------------|----------------|----------------|-----------|
G|---------85----|---------85----|---------85----|-----------|
C|-0-0-0-0-----0--|-0-0-0-0-----0--|-0-0-0-0-----0--|-0-0-0-0---|
   .......     .    .......     .    .......     .    .......

F|----------|-----------|-----------|-----------|
C|----------|-----------|-----------|-----------|
G|----------|-----------|-----------|-----------|
C|-0--------|-(0)-------|-(0)-------|-(0)-------|

Piano Bridge...

Guitars come in...
(there is bass but its very difficult 
to hear so when i get it ill post it!!)

Solo:
F|-------------------------|-----------------|
C|-------------------------|-----------------|
G|-------------------------|-----------------|
C|-12-12-12-12-12-12-12-12-|-8-8-8-8-8-8-8-8-|

F|-------------------------|-------------------------|
C|-------------------------|-------------------------|
G|-------------------------|-------------------------|
C|-10-10-10-10-10-10-10-10-|-10-10-10-10-11-11-11-11-|

F|-------------------------|-----------------|
C|-------------------------|-----------------|
G|-------------------------|-----------------|
C|-12-12-12-12-12-12-12-12-|-8-8-8-8-8-8-8-8-|

F|-------------------------|-------------------------|
C|-------------------------|-------------------------|
G|-------------------------|-------------------------|
C|-10-10-10-10-10-10-10-10-|-10-10-10-10-11-11-11-11-|

F|-------------------------|-----------------|
C|-------------------------|-----------------|
G|-------------------------|-----------------|
C|-12-12-12-12-12-12-12-12-|-8-8-8-8-8-8-8-8-|

F|-------------------------|-------------------------|
C|-------------------------|-------------------------|
G|-------------------------|-------------------------|
C|-10-10-10-10-10-10-10-10-|-10-10-10-10-11-11-11-11-|

F|-------------------------|-----------------|
C|-------------------------|-----------------|
G|-------------------------|-----------------|
C|-12-12-12-12-12-12-12-12-|-8-8-8-8-8-8-8-8-|

F|-------------------------|-------------------------|
C|-------------------------|-------------------------|
G|-------------------------|-------------------------|
C|-10-10-10-10-10-10-10-10-|-10-10-10-10-11-11-11-11-|

End On:
F|---------|
C|---------|
G|---------|
C|-12~-----|

thast it hope you all enjoy took me a while btu did it all for u enjoy!!!!!!
Show more