• Song:

    She Eclipsed By Me

  • Artist:

    Atreyu

Its in drop c, if you dont know how to get there, this tab is not for you. 

Intro x2 
F-------------------------------------------------------------------- 
C-------------------------------------------------------------------- 
G-------------------------------------------------------------------- 
C-0-0-0-7-7-000000-0-0-0-7-7-000000-0-0-0-6-6-000000-0-0-0-6-6-000000 

Cont. 
F--------------------------------------------------------------- 
C--------------------------------------------------------------- 
G--------------------------------------------------------------- 
C-8-8-8-12-12-000000-8-8-8-12-12-000000-5555555-3333333-88888888 

Verse x2 "Nodody made you, kind of the world" 
F----------------------------------------------------------------------------- 
C----------------------------------------------------------------------------- 
G------------------------------------------5^------------------------------------3^ 
C-00000-00000000000-00000000000-0000000000---00000-00000000000-00000000000-00000 

Chorus x2 "I say thank you for the scars" 
F------------------------------------------------------------------------------- 
C------------------------------------------------------------------------------- 
G------------------------------------------------------------------------------- 
C-0-00000-10-10-10-10-10-10-5-55555-8-88888-0-00000-10-1010101010-9-99999-8-88888 

Intro riff x1 
Verse x2 

After pause x4 "Piece by piece Ive built my walls" 
F-------------------------------------------------------------- 
C-------------------------------------------------------------- 
G---------------------------------------15p13-13p12-12p10-10h12 
C-88888888888-101010-121212121212121212------------------------ 

Verse x2 "I will not be broken" 
Chorus x3 

Outro 
F-------------------------------------------------------------- 
C-------------------------------------------------------------- 
G-----------------3-------------------------------------------- 
C-00000-000000-00----------------------------------------------
Show more