• Song:

    Who Died

  • Artist:

    Atreyu

  • Album:

    Visions

NTRO
e|---------------------------------------|
B|---------------------------------------|
G|----------4---------------4------------|
D|----2---2---------------2--------------|
A|--3---3-----3-3---2---2-----2-2--------|
D|----------------2---2------------------| x4

RIFF ONE
e|---------------------------------------|
B|---------------------------------------|
G|--555555----------555555---------------|
D|--555555--222222--555555--555555-------|
A|--333333--222222--333333--555555-------|
D|----------222222----------555555-------| x2

RIFF TWO (HERE,PLAY THE FIRST NOTE OPEN AND MUTE THE REST)
e|---------------------------------------|
B|---------------------------------------|
G|--555555----------555555---------------|
D|--555555--222222--555555--555555-------|
A|--333333--222222--333333--555555-------|
D|----------222222----------555555-------| x6 (i think)
     .....   .....   .....   .....

RIFF THREE (FAST PART)
e|---------------------------------------|
B|---------------------------------------|
G|--------55-44--------7-5-4-5-----------|
D|--2222--55-44--5555--7-5-4-5-----------|
A|--2222--33-22--5555--5-3-2-3-----------|
D|--2222---------5555--------------------| x4

RIFF FOUR
e|------------------------------------------|
B|------------------------------------------|
G|--5-5-5-5-----------5-5-5-5---------------|
D|--5-5-5-5--2-2-2-2--5-5-5-5--5-5-5-5------|
A|--3-3-3-3--2-2-2-2--3-3-3-3--5-5-5-5------|
D|-----------2-2-2-2-----------5-5-5-5------| x2

RIFF THREE (x4)

RIFF FIVE (PALM MUTED EXCEPT FOR THE FINAL CHORD)
e|-----------------------------------|
B|-----------------------------------|
G|-----------------------------------|
D|--22--2222--2222--2222-3-----------|
A|--22--2222--2222--2222-3-----------|
D|--22--2222--2222--2222-3-----------|
    ..  ....  ....  ....

RIFF SIX
e|-----------------------------------|
B|-----------------------------------|
G|-------55-4-------7-45-------------|
D|--222--55-4--555--7-45-------------|
A|--222--33-2--555--5-23-------------|
E|--222--------555-------------------|
    ..         ..

RIFF THREE (x4)

FADE OUT ON
e|---------|
B|---------|
G|---------|
D|--2------|
A|--2------|
E|--2------|
Show more