• Song:

    You Eclipsed By Me

  • Artist:

    Atreyu

  • Album:

    The Curse (Re-Issue)

Played in dropped C tuning-CGCFAD
^-Bend
~-Let Ring
*-Harmonic



intro:
D :---------------------------------------------------------------------
A :---------------------------------------------------------------------
F :------14-14------------14-14------------13-13------------13-13-------        
c :0-0-0-------xxxxx0-0-0-------xxxxx0-0-0-------xxxxx0-0-0-------xxxxx-
G :0-0-0-12-12-xxxxx0-0-0-12-12-xxxxx0-0-0-11-11-xxxxx0-0-0-11-11-xxxxx-
C :0-0-0-------xxxxx0-0-0-------xxxxx0-0-0-------xxxxx0-0-0-------xxxxx-
                                                                                2x

D :------------------------------------------------------------------
A :------------------------------------------------------------------
F :------------------------------------------------------------------
c :8-8-8-12-12-xxxxx8-8-8-12-12-xxxxx5-5-5-5-5-xxxxx5555333388888888-
G :8-8-8-12-12-xxxxx8-8-8-12-12-xxxxx5-5-5-5-5-xxxxx5555333388888888-
C :8-8-8-12-12-xxxxx8-8-8-12-12-xxxxx5-5-5-5-5-xxxxx5555333388888888-
                                                    ___Palm mute ____
  verse- Nobody made you king of the world.........
D :---------------------------------------------------------------------------
A :---------------------------------------------------------------------------
F :---------------------------------------------------------------------------        2x
c :xxxx0-xxxxxxx0-xxxxxxx0-xxxxxxx0-----xxxx0-xxxxxxx0-xxxxxxx0-xxxxxxx0------
G :xxxx0-xxxxxxx0-xxxxxxx0-xxxxxxx0--5^-xxxx0-xxxxxxx0-xxxxxxx0-xxxxxxx0--3^--
C :xxxx0-xxxxxxx0-xxxxxxx0-xxxxxxx0-----xxxx0-xxxxxxx0-xxxxxxx0-xxxxxxx0------

  chorus-So I say thank you for the scars........
  (guitar 1)
D :------------------------------------------------------------------------
A :------------------------------------------------------------------------
F :------------------------------------------------------------------------
c :0-0-0-0-10-10-10-10-5-5-5-5-8-8-8-8-0-0-0-0-10-10-10-10-9-9-9-9-8-8-8-8-
G :0-0-0-0-10-10-10-10-5-5-5-5-8-8-8-8-0-0-0-0-10-10-10-10-9-9-9-9-8-8-8-8-
C :0-0-0-0-10-10-10-10-5-5-5-5-8-8-8-8-0-0-0-0-10-10-10-10-9-9-9-9-8-8-8-8-

  (guitar 2)
D :------------------------------------------------------
A :------------------------------------------------------
F :---10-910--10-1412--5-57--10-9-14-12------------------
c :0-----------------------------------------------------
G :0--8--78----8-1210--3-35--8--7-12-10------------------
C :0-----------------------------------------------------

  both guitars-What did you take me for, a fool?.........
D :------------------------------------------------------
A :------------------------------------------------------
F :7-7-7-7-5-5-5-5-10-10-10-10-10-10---------------------    2x
c :------------------------------------------------------
G :5-5-5-5-3-3-3-3-8-8-8-8-8-8-8-8-----------------------
C :------------------------------------------------------
intro 1x
verse

  bridge-Piece by piece I built my walls........whoa oooo oooo
  (guitar 1)
D :------------------------------------------------------
A :------------------------------------------------------
F :------------------------------------------------------
c :8888888888888101010121212121212121212121212-----------
G :8888888888888101010121212121212121212121212-----------
C :8888888888888101010121212121212121212121212-----------

  (guitar 2)                                                    4x
D :------------------------------------------------------
A :------------------------------------------------------
F :77777777777799991010101010101010----------------------
c :------------------------------------------------------
G :55555555555577778888888888888888----------------------
C :------------------------------------------------------

  I will not be broken.................
D :-------------------------------------------------------------------------
A :-------------------------------------------------------------------------
F :-------------------------------------------------------------------------
c :xxxxx-xxxxxxxx-xxxxxxxx-xxxxxxxx--3^--xxxxx-xxxxxxxx-xxxxxxxx-xxxxxxxx--x
G :xxxxx-xxxxxxxx-xxxxxxxx-xxxxxxxx------xxxxx-xxxxxxxx-xxxxxxxx-xxxxxxxx--x
C :xxxxx-xxxxxxxx-xxxxxxxx-xxxxxxxx------xxxxx-xxxxxxxx-xxxxxxxx-xxxxxxxx--x


D :--------------------------------------------------------------------------------
A :--------------------------------------------------------------------------------
F :--------------------------------------------------------------------------------
c :xxxxx-xxxxxxxx-xxxxxxxx-xxxxxxxx------xxxxx-xxxxxxxx-xxxxxxxx-xxxxxxxx----------
G :xxxxx-xxxxxxxx-xxxxxxxx-xxxxxxxx--5^--xxxxx-xxxxxxxx-xxxxxxxx-xxxxxxxx--3^~-----
C :xxxxx-xxxxxxxx-xxxxxxxx-xxxxxxxx------xxxxx-xxxxxxxx-xxxxxxxx-xxxxxxxx----------


D :---------------------------------------------------------------------
A :---------------------------------------------------------------------
F :---------------------------------------------------------------------
c :xxx0-xxxxxxx0-xxxxxxx0-xxxxxxx0--3^--xxxx0-xxxxxxx0-xxxxxxx0-xxxxxxxx
G :xxx0-xxxxxxx0-xxxxxxx0-xxxxxxx0------xxxx0-xxxxxxx0-xxxxxxx0-xxxxxxxx
C :xxx0-xxxxxxx0-xxxxxxx0-xxxxxxx0------xxxx0-xxxxxxx0-xxxxxxx0-xxxxxxxx

chorus 1x

  end thing
D :------------------------------------------------------
A :------------------------------------------------------
F :------------------------------------------------------
c :xxxx0-xxxxxxxx----------------------------------------
G :xxxx0-xxxxxxxx-3*~------------------------------------
C :xxxx0-xxxxxxxx----------------------------------------
Show more