• Song:

    You Eclipsed By Me

  • Artist:

    Atreyu

  • Album:

    The Curse (Re-Issue)

sponsored links
Intro: x2

F: ------------------------------------------
C: ------------------------------------------
G: -----12-12-12-----------12-12-12----------
C: -0-0----------00000-0-0----------00000----

F: ------------------------------------------
C: ------------------------------------------
G: -----13-13-13-----------13-13-13----------
C: -0-0----------00000-0-0----------00000----  

F: ------------------------------------------
C: ------------------------------------------
G: ------------------------------------------
C: -8-8-12-12-12-00000-8-8-12-12-12-00000----

F: ------------------------------------------
C: ------------------------------------------
G: ------------------------------------------
C: -5-5-5-5-5-00000-5555-3333-88888888-------

Verse: x4

F: ------------------------------------------
C: ------------------------------------------
G: ------------------------------------------
C: -00000-00000000-00000000-00000000---------

Chorus: x1

F: ------------------------------------------
C: ------------------------------------------
G: ------------------------------------------
C: -0000000-1010101010101010-55555555--------

F: ------------------------------------------
C: ------------------------------------------
G: ------------------------------------------
C: -88888888-00000000-1010101010101010-------

F: ------------------------------------------
C: ------------------------------------------
G: ------------------------------------------
C: -99999999-88888888------------------------

Intro: x1

Verse: x4

Bridge: x4

F: ------------------------------------------
C: ------------------------------------------
G: -555555555555-7777-888888888888-----------
C: ------------------------------------------

Break: x1

F: ------------------------------------------
C: ------------------------------------------
G: ------------------------------------------
C: -0~------------------0--------------------

F: ------------------------------------------
C: ------------------------------------------
G: ------------------------------------------ 
C: -0----------------------------------------
Pm  .

Verse: x2 (speed it up)

Verse: x2 (speed it up more)

Chorus: x3

Outro: x1

F: ------------------------------------------
C: ------------------------------------------
G: ------------------------------------------
C: -00000-00000000---------------------------
Show more
sponsored links
sponsored links