• Song:

    You Give Love A Bad Name (bon Jovi Cover

  • Artist:

    Atreyu

Artist- Atreyu
song- You Give Love A Band Name
Tuning- standard 5 string

Intro
G|--------------------------------------|  |------
D|--------------------------------------|  |------
A|--------------------------------------|2X|------
E|-1112-222-0444-066-2224-444-101010-47-|  |2-24~-
B|--------------------------------------|  |------

Verse 1
G|-------------------|  |-----|-------------------
D|-------------------|  |-----|-------------------
A|-----55-------55---|6x|-----|-----55-------55---
E|-7-57--75-7-57--7--|  |-----|-7-57--75-7-57--7--
B|--7--------7-------|  |-4~~-|--7--------7-------

G|----------------------
D|----------------------
A|----------------------
E|----------------------
B|-4~~66666666-7-7-7-7-7

Chorus
G|--------------------------------------|  |------
D|--------------------------------------|  |------
A|--------------------------------------|2X|------
E|-1112-222-0444-066-2224-444-101010-47-|  |2-24~-
B|--------------------------------------|  |------

Verse 2
G|-------------------|  |----------------|
D|-------------------|  |----------------|
A|-----55-------55---|  |----55----------|
E|-7-57--75-7-57--7--|X2|7-57--75--------|
B|--7--------7-------|  |-7------05-5-5-5|


G|------------------------|
D|------------------------|
A|------------------------|
E|------------------------|
B|11-111~-11-11-|3X|-11-11|

G||-----|-------------------
D||-----|-------------------
A||-----|-----55-------55---
E||-----|-7-57--75-7-57--7--
B||-4~~-|--7--------7-------

G|----------------------
D|----------------------
A|----------------------
E|----------------------
B|-4~~66666666-7-7-7-7-7

Chorus
G|--------------------------------------|  |------
D|--------------------------------------|  |------
A|--------------------------------------|2X|------
E|-1112-222-0444-066-2224-444-101010-47-|  |2-24~-
B|--------------------------------------|  |------

Solo
G|--------------------------------------|  |------
D|--------------------------------------|  |------
A|--------------------------------------|2X|------
E|-1112-222-0444-066-2224-444-101010-47-|  |2-24~-10101010101010101010
B|--------------------------------------|  |------

Chorus
G|--------------------------------------|  |------
D|--------------------------------------|  |------
A|--------------------------------------|2X|------
E|-1112-222-0444-066-2224-444-101010-47-|  |2-24~-
B|--------------------------------------|  |------

Last chorus - not exactly this but something like it
G|--------------------------------------|  |------
D|--------------------------------------|  |------
A|--------------------------------------|2X|------
E|-1112-222-0444-066-2224-444-101010-47-|  |2-24~-
B|--------------------------------------|  |------

END
G|------------------------------------------
D|------------------------------------------
A|------------------------------------------
E|------------------------------------------
B|11-111-11-111-11-111-11-111-11-11-11-11111
Show more