-------------------------------------------------------------------------------
     Last Breath - Attack Attack!
-------------------------------------------------------------------------------

Tabbed By : 
e-mail: 

Tuning:
Intro/chorus
G|---------------------------------------------------------------------------|
D|---------------------------------------------------------------------------|
A|---------------------------------------------------------------------------|
E|---4-4-4-4-4-4-4-4-7-7-7-7-7-7-7-7-2-2-2-2-2-2-2-2-0-0-0-0-0-0-0-0---------|

G|---------------------------------------------------------------------------|
D|---------------------------------------------------------------------------|
A|---------------------------------------------------------------------------|
E|---4-4-4-4-4-4-4-4-7-7-7-7-7-7-7-7-0-0-0-0-0-0-0-0-2-----------------------|

Verse(x2)
G|---------------------------------------------------------------------------|
D|---------------------------------------------------------------------------|
A|---------------------------------------------------------------------------|
E|---4-4-x-x--4-4-4-x--4-4-4-4--4-4-4-4--4-4-x-x--4-4-4-4--4-4-x-x--4-4-4-4--|

G|---------------------------------------------------------------------------|
D|---------------------------------------------------------------------------|
A|---------------------------------------------------------------------------|
E|---4-4-x-x--4-4-4-x--4-4-4-4--x-4-4-4--4-4-x-x--4-4-4-4--4-4-x-x--4-4-4-4--|

Pre-Chorus(x2)
G|---------------------------------------------------------------------------|
D|---------------------------------------------------------------------------|
A|---------------------------------------------------------------------------|
E|---4-4-4-4--4-4-4-4--4--x-7-7--7-7-x--7-7-7-7--7-7-7-7---------------------|


G|---------------------------------------------------------------------------|
D|---------------------------------------------------------------------------|
A|---------------------------------------------------------------------------|
E|---2-2-2-2--2-2-2-2--2--x-9-9--9-9-x--9-9-9-9--9-9-9-9---------------------|
Chorus(x2) 
Verse(x1)
Pre-Chorus(x2)
Chorus(x2)

Break down(x8)
G|---------------------------------------------------------------------------|
D|---------------------------------------------------------------------------|
A|---------------------------------------------------------------------------|
E|---4-3-2--4-3-2--1-1-1-1--1-1-1-1--0----2--2-2-----------------------------|

Chorus

G|---------------------------------------------------------------------------|
D|---------------------------------------------------------------------------|
A|---------------------------------------------------------------------------|
E|---4-4-4-4-4-4-4-4-7-7-7-7-7-7-7-7-2-2-2-2-2-2-2-2-0-0-0-0-0-0-0-0---------|

G|---------------------------------------------------------------------------|
D|---------------------------------------------------------------------------|
A|---------------------------------------------------------------------------|
E|---4-4-4-4-4-4-4-4-7-7-7-7-7-7-7-7-0-0-0-0-0-0-0---------------------------|

G|---------------------------------------------------------------------------|
D|---------------------------------------------------------------------------|
A|---------------------------------------------------------------------------|
E|---2(x8)-4(x8)-7(x8)-2(x8)-0(x8)-4(x8)-7(x8)-0(x8)-2-----------------------|

break down 3 times and end with

G|---------------|
D|---------------|
A|---------------|
E|--4-3-2--------|



| /  slide up
| \  slide down
| h  hammer-on
| p  pull-off
| ~  vibrato
| +  harmonic
| x  Mute note
===============================================================================
Show more