ATTACK ATTACK      -      PARTY FOUL
INTRO
|---------------------------------------------|
|---------------------------------------------|
|--88-8-8~---88-8-8~--------------------------|   x2
|----------------------88-8-8~---1010-10-10~--|

CHORUS
|---------------------------------------------------------|
|---------------------------------------------------------|
|--555-777-88888888--555-777-88888888---------------------|   x2
|-------------------------------------88888888-55555555---|

PRE-BREAKDOWN
|------------------------------------------------|
|------------------------------------------------|
|------------------------------------------------|
|--0~0~0~------0~0~0~--------0~0~0~------0~0~0~--|

BREAKDOWN  PT 1
|--------------------------------|
|--------------------------------|
|--------------------------------|
|--000-000-00000000-0000-0-0000--|
PT 2
|------------------------| 2nd  |-----|
|------------------------| time |-----|
|------------------------| only |-----|
|--000-000-00000000-000--|    > |-12\-|
REPEAT PT 1
REPEAT PT 2

PT 3
|--------------------|
|--------------------|
|--------------------|
|--000-000-00000000--|

|--------------------------------|
|--------------------------------|
|--------------------------------|
|--000-000-00000000-0000-0-0000--|
REPEAT PT 3

POST-BREAKDOWN
|--------------------------------------------------|
|--------------------------------------------------|
|------1212-----12-12-12-12-----1212-----1212------|  x3
|--0000-----0000------------0000-----0000-----12\--|

BRIDGE (something like this)
|----------------------------|
|----------------------------|
|----------------------------|
|--0~--0-0-00----0~--0-0-00--|

REPEAT CHORUS
REPEAT PRE-BREAKDOWN

BREAKDOWN BREAKDOWN
|---------------------------------------------------------------|
|--------------------------------------------------------10bnd--|
|-----------------------------------------8--8--8-7-5-7---------|
|--2-2-22222-------------------2-2-22222---00-00-0-0-0-0--------|

|----------------------------------------------------------------|
|-------------------------------------------------------------0~-|
|-------------------------------------------------------------0~-|
|--2-2-22222----5-4-3-4-3--3bnd--2-2-22222--------------------0~-|


TABBED BY LURKNASTY
Show more