(Sumbited by D.Amat & edgardo S.)
Intro:
  Bm		      G                     A                    Bm
-------------------|-------------------|----------------------------|
---2--0---2-0--2-0-|---3--2---3-2--3-2-|----3--2---3-2--3-2-2-------|
------------------ |--0------0-----0---|--2------2-----2------4-2-4-|
-4-----4-----4-----|-------------------|----------------------------|
-------------------|-------------------|----------------------------|
-------------------|-------------------|----------------------------|	Se 

     Bm                                    G
Tu eres mi hermano del alma realmente el amigo
        A                                      D 
que en todo camino y por nada est? siempre conmigo
        G                                       Em
Aunque eres un hombre aun tienes el alma de un ni?o
   F#                                       Bm
aquel que me da su amistad, su respeto y cari?o.

Recuerdo que juntos pasamos muy duros momentos
y t? no cambiaste por fuertes que fueron los vientos.
Es tu coraz?n una casa de puertas abiertas.
Tu eres realmente el m?s cierto en horas inciertas.

(Intro)
En ciertos momentos dif?ciles que hay en la vida
buscamos a quien nos ayude a encontrar la salida
y aquella palabra de fuerza y de fe que me has dado
me da la certeza que siempre estuviste a mi lado.

Tu eres mi amigo del alma en toda jornada
sonrisa y abrazo, testigo a cada llegada
me dices verdades tan grandes con frases abiertas
Tu eres realmente el m?s cierto en horas inciertas.
(Intro)

      Bm                     G
No preciso ni decir todo esto que te digo
          A                        Bm                         x 3
Pero es bueno as? sentir que eres tu mi gran amigo.


  Bm		   G 		    A				       Bm
e----------------|---------------|-----------------------------------|---------
b----------------|---------------|----------4--7--7--7--4--4--4------|---------
g--6--6--4--3--4-|-6--6--4--3--4-|-3--4--6----------------------6--4-|-3--1--1-
d----------------|---------------|-----------------------------------|---------
a----------------|---------------|-----------------------------------|---------
E----------------|---------------|-----------------------------------|---------
Show more