ATTAQUE 77 (A77AQUE)
Song: El Cielo Puede Esperar
Album: El Cielo Puede Esperar
By GargolA_Man

Intro

G|--------------------------------------------------------------------|
D|--------------------------------------------------------------------|
A|---12-(x5)---10-(x5)---8-(x5)--7-(x5)----5-(x5)-----7-8-7--7-7-8-7--|
E|--------------------------------------------------------------------|

G|------------------------------------------------------------|
D|------------------------------------------------------------|
A|---12-(x4)---14-15-14-12----8-(x4)-7-8-7---5-(x7)---7-(x7)--|
E|------------------------------------------------------------|

G|--------------------------------------------------------|
D|--------------------------------------------------------|
A|---12-(x11)---10--8-(x11)---7--5-(x11)----7-(x11)-------|
E|--------------------------------------------------------|  x2

G|--------------------------------------------------------|
D|--------------------------------------------------------|
A|---------8-(x6)-------10-(x6)---------------------------|
E|--------------------------------------------------------|

G|--------------------------------------------------------|
D|--10-(x5)-----------------------------------------------|
A|------------12-(x4)----10-(x4)----8-(x3)---- 10-(x4)----|
E|--------------------------------------------------------|  x3

G|------------------------------------------------|
D|--10-(x5)---------------------------------------|
A|--------------8-(x6)-------10-(x6)--------------|
E|------------------------------------------------|

G|----------------------5-(x6)-------------|
D|------------5-(x6)------------- 7-(x6)---|
A|--5-(x6)---------------------------------|
E|-----------------------------------------|

G|----------------------5-(x6)--------------|
D|------------5-(x6)------------------------|
A|--5-(x6)----------------------- 7-(x6)----|
E|------------------------------------------|
Show more