Tabbed By SaNdMaNNaG

La base se hace con golpes de poca duracion (+)

       G5          Bb5            F5        G5 
e|------------|------------|------------|------------|
B|------------|------------|------------|------------|
G|------------|++++++++++++|------------|------------|
D|++++++++++++|++++++++++++|++++++++++++|++++++++++++|
A|++++++++++++|++++++++++++|++++++++++++|++++++++++++| x8
E|++++++++++++|------------|++++++++++++|++++++++++++|

2da Guitarra:

e|------------|------------|------------|------------|
B|------------|------------|------------|------------| 
G|------------|------------|------------|------------| 
D|-(5)~~~~~~~~|~~~~~~~~~~~~|~~~~~~~~~~~~|~~~~~~~~~~~~|
A|------------|------------|------------|------------| 
E|------------|------------|------------|------------|

e|------------|------------|------------|------------|
B|------------|------------|------------|------------|
G|----------3-|------------|232323232323|--(0)-------| 
D|-5--5-3-5---|-3-1-3--3---|------------|------------|
A|------------|------------|------------|------------| 
E|------------|------------|------------|------------|

e|-------6----|-------6----|-------6----|-(10)----(3)|
B|-8-6-8---8--|-8-6-8---8--|-8-6-8---8--|------------|
G|------------|------------|------------|------------|
D|------------|------------|------------|------------|
A|------------|------------|------------|------------| 
E|------------|------------|------------|------------|

e|-9-10-9-10-9|10-9-10-9-10|-9-10-9-10-9|10-9-8-6-(3)|
B|------------|------------|------------|------------|
G|------------|------------|------------|------------|
D|------------|------------|------------|------------|
A|------------|------------|------------|------------| 
E|------------|------------|------------|------------|

e|------------|------------|------------|------------|
B|-8-6---8-6--|-8-6---8-6--|8-6---8-6---|-(10)-10-(8)|
G|-----7------|-----7------|----7-------|------------|
D|------------|------------|------------|------------|
A|------------|------------|------------|------------| 
E|------------|------------|------------|------------|

e|-------6----|-------6----|-------6----|-(10)---x---|
B|-8-6-8---8--|-8-6-8---8--|-8-6-8---8--|--------x---|
G|------------|------------|------------|--------x---|
D|------------|------------|------------|--------5---|
A|------------|------------|------------|--------5---| 
E|------------|------------|------------|--------3---|
 

  G5  Bb5  F5 Eb5 
E|-----------------|
B|-----------------|
G|------3----------|
D|--5---3---3---6--|
A|--5---1---3---6--|
e|--3-------1---4--|

 INTRO                                                                              
E---------------------------------------------------------------------------
B---------------------------------------------------------------------------
G-0-0-2-3-3-2-2-0---0-2-3-7-7-5-3-7---7-7-7-8-7-5-3-2---0-0-0-2-2-2-3-3-2-0-
D---------------------------------------------------------------------------
A---------------------------------------------------------------------------
e---------------------------------------------------------------------------

E---------------------------------------------------------------------------
B---------------------------------------------------------------------------
G-0-0-2-3-3-2-2-0---0-2-3-7-7-5-3-7---7-7-7-8-7-5-3-2---0-0-0-2-2-2-3-3-2-0-
D---------------------------------------------------------------------------
A---------------------------------------------------------------------------
e---------------------------------------------------------------------------

VERSO1:
G5                                       Bb5    
No me arrepiento de este amor, aunque me cueste el coraz?n;
           F5                              G5
amar es un milagro y yo te am?, como nunca jam?s lo imagin?.
                                Bb5   
Quiero arrancarme de tu piel, de   tu mirada de tu ser,
                 F5                             G5 
yo siento que la vida se nos va y que el d?a de hoy no vuelve mas.

VERSO2:
      Bb5                            F5
Despu?s de cerrar la puerta, nuestra cama espera abierta,
    Eb5                    Bb5  F5
la locura apasionada del amoooo-oooor.
           Bb5                          F5
Y entre un te quiero y te quiero, vamos remontando al cielo,
     Eb5   
y no puedo arrepentirme de este amor.

VERSO1:
G5                                       Bb5    
No me arrepiento de este amor, aunque me cueste el coraz?n;
           F5                              G5
amar es un milagro y yo te am?, como nunca jam?s lo imagin?.
                                Bb5   
Quiero arrancarme de tu piel, de   tu mirada de tu ser,
                 F5                             G5 
yo siento que la vida se nos va y que el d?a de hoy no vuelve mas.
 
INTERLUDE
E---------------------------------------------------------------------------
B---------------------------------------------------------------------------
G-0-0-2-3-3-2-2-0---0-2-3-7-7-5-3-7---7-7-7-8-7-5-3-2---0-0-0-2-2-2-3-3-2-0-
D---------------------------------------------------------------------------
A---------------------------------------------------------------------------
e---------------------------------------------------------------------------

VERSO2:
 Bb5                            F5
Despu?s de cerrar la puerta, nuestra cama espera abierta,
    Eb5                    Bb5  F5
la locura apasionada del amoooo-oooor.
           Bb5                          F5
Y entre un te quiero y te quiero, vamos remontando al cielo,
     Eb5   
y no puedo arrepentirme de este amor.

VERSO1:
G5                                       Bb5    
No me arrepiento de este amor, aunque me cueste el coraz?n;
           F5                              G5
amar es un milagro y yo te am?, como nunca jam?s lo imagin?.
                                Bb5   
Quiero arrancarme de tu piel, de   tu mirada de tu ser,
                 F5                             G5 
yo siento que la vida se nos va y que el d?a de hoy no vuelve mas.

INTERLUDE2 
E|----------------------------------------------------|
B|----------------------------------------------------|
G|------------------3-3-3-3-3-3-3-3-------------------|
D|-5-5-5-5-5-5-5-5--3-3-3-3-3-3-3-3--3-3-3-3-3-3-3-3--|
A|-5-5-5-5-5-5-5-5--1-1-1-1-1-1-1-1--3-3-3-3-3-3-3-3--|
e|-3-3-3-3-3-3-3-3-------------------1-1-1-1-1-1-1-1--|
 pm.................................................
Show more