ATTAQUE 77 (A77AQUE)
Song: No Me Arrepiento De Este Amor
Album: Otras Canciones(covers)
By GargolA_Man


Intro
G[------------------|-------7-7----7-|-7777-8------------|-------------7-------------]
D[-5-5--7-8-8-7-7-5-|-7-7-10---10-8--|--------10-10-8-8-7|-10-10-10-10---8-8-7-7-5---]
A[------------------|----------------|-------------------|---------------------------]
E[------------------|----------------|-------------------|---------------------------]


Riff
G[-------------------------------------------------------------------------------------]
D[-------------------------------------------------------------------------------------]
A[-------------------------1-1-1-1-1-1-1-1-1-1-----------------------------------------]
E[---3-3-3-3-3-3-3-3-3-3-------------------------1-1-1-1-1-1-1-1-----3-3-3-3-3-3-------]


Chorus
G[-------------------------------------------------------------------------------------]
D[-------------------------------------------------------------------------------------]
A[---3-3-3-3-3-3-3---------------------------------------3-3---------------------------]
E[--------------------3-3-3-3-3-3-3-----1-1-1-1-1-1-1--------3-3-3-3-3-3---------------]

G[-------------------------------------------------------------------------------------]
D[-------------------------------------------------------------------------------------]
A[---3-3-3-3-3-3-3---------------------------------------3-3---------------------------]
E[--------------------3-3-3-3-3-3-3-----1-1-1-1-1-1-1--------3-3-3-3-3-3---------------]
Show more