ATTAQUE 77 (A77AQUE)
Song: Santiago
Album: Un Dia Perfecto
By GargolA_Man

[No Official Version]

Intro
|----------------------------|--------------------------|
|----------------------------|--------------------------|
|--------------10-10-9-8-8-8-|--------------10-10-10-10-|
|-5-5-7-8-8--8---------------|-5-5-7-8-8--8-------------|

Riff #1
  A        C        G        F
|-------------------------------------|
|-------------------------------------|
|----------3-3-3-3--------------------|
|-5-5-5-5-----------3-3-3-3--1-1-1-1--|

  A        C        F
|------------------------------------|
|------------------------------------|
|----------3-3-3-3-------------------|
|-5-5-5-5-----------1-1-1-1-1-1-1-1--|

Riff #2
  D         F        C     A# A  A#
|----------------------------------|
|----------------------------------|

|-5-5-5-5-7-8--8-8-5-3-3-3-1--0--1-|
|----------------------------------|

  D         F        E      E F G  F E
|--------------------------------------|
|--------------------------------------|
|-5-5-5-5-7-8--8-8-8-7-7-7--7-8-10-8-7-|
|--------------------------------------|

Riff #3
  B         C           D          A
|------------------------------------------|
|------------------------------------------|
|-2-2-2-2-2-3-3-3-3-3-4-5-5-5-5-5--0--0--0-|
|------------------------------------------|

Riff #4
  B       D       A        G
|----------------------------------|
|----------------------------------|
|---------5-5-5-5------------------|
|-7-7-7-7---------5-5-5-5--3-3-3-3-|

  B       D       G
|---------------------------------|
|---------------------------------|
|---------5-5-5-5-----------------|
|-7-7-7-7---------3-3-3-3-3-3-3-3-|

  B       D       A       G
|---------------------------------|
|-9-9-9-----------7-7-7-6-5-5-5-4-|
|-------7-5-5-5-7-----------------|
|---------------------------------|

  B     D         G
|---------------------------------|
|-9-9-9-----------5-5-5-7-5-5-5-7-|
|-------7-5-5-5-7-----------------|
|---------------------------------|

  E         G           D      C  B  C
|--------------------------------------|
|--------------------------------------|
|-7-7-7-7-9-10--10-10-7-5-5-5--3--2--3-|
|--------------------------------------|

  E         G          F#     F# G  A
|--------------------------------------|
|--------------------------------------|
|-7-7-7-7-9-10--10-10--9-9-9--9--10-12-|
|--------------------------------------|




Intro     
Riff 1 x2 
Riff 2    
Riff 1 x3 
Riff 2    
Riff 3    
Riff 1 x3 
Riff 2    
Riff 3    
Riff 4    

Enjoy!!
Show more