Tabbed by SaNdMaNNaG

Intro: punteo sobre: G - D - F - C - G x 2

-|------------------------------------------------|
-|------------------------------------------------|
-|------------------------------------------------| X 2
-|--5---5--7/9-7-4-5--5/7--5----------------------|
-|----5------------------------5-7-5-7-5-7-5-7-5--|
-|------------------------------------------------|

   G       D               Em                Bm          D
Vamonos que diablos hago aca, en medio de toda esta gente
   G        D                   Em                Bm           D
Vamonos que hace alguien como vos, en medio de toda esta gente

  C         D              Em                A  
Tan impersonal, visiada de mas, me quiero largar
      G        C          D             C
hoy es viernes... siempre es viernes...

 (Mismos acordes)

Vamonos lejos de la ciudad a un lugar donde todo es diferente
Nuestra piel esta tan suave hoy como para sentirnos mutuamente
desnudos frente al mar dan ganas de hablar promesas de mas...
voy amarte para siempre...

Em        C       G              D
Estoy cansado ya, igual no puedo parar
Em         C                   C              D
Tu cola esta tan bien que dan ganas de mordertela

Solo:   punteo sobre: G - D - E - Bm - D.

-|-------------------------|-------------12----------------|----------------------------|
-|-------------------8---8-|----------15----15-------------|----------------------------|
-|---------7---7-9-9---9---|-14-12-14----------14-12-------|-------------15-------------|
-|-4/9-9-9---9-------------|-------------------------14-12-|-14/16-14-12----12-14/16-14-|
-|-------------------------|-------------------------------|----------------------------|
-|-------------------------|-------------------------------|----------------------------|

-|---------------------------|----------------------------|
-|---------------------------|----------------------------|
-|-------12--14/16--14-12----|-------------14----14-14----|
-|-12-14------------------14-|-12-12/14-12----12-------12-|
-|---------------------------|----------------------------|
-|---------------------------|----------------------------|

 C        D                    Em              A
Me sale pensar que el tiempo quizas se detenga ya....
    G       C       D        C
Vacaciones...  permanentes... 

Punteo final...

-|---------------------------------------------|
-|---------------------------------------------|
-|---------------------------------------------|
-|-5---5--7/9--7-4-5--5/7-5--------------------|
-|---5-----------------------5-7-5-7-5-7-5-7-5-|
-|---------------------------------------------|

-|--------------------------|-------------------------------------10---------12-12--12-10-8-4-|
-|--------------------------|----------------------------------12----12-10-8------------------|
-|--------------------------|-------------------------5-5-7/12--------------------------------|
-|-5---5--7/9--7-4-5--5/7-5-|-5-7--7/9-9--9/10-10-9-7-----------------------------------------|
-|---5----------------------|-----------------------------------------------------------------|
-|--------------------------|-----------------------------------------------------------------|

-|---------------------------                       -|-------------------------|
-|---------------------------  En la version de     -|-------------------------|
-|---------------------------  TRAPOS termina asi:  -|-------------------------|
-|---------------------------                       -|-------------------------|
-|-5-7-5-7-5-7-5-7-5---------                       -|-5-7-5-7-5-7-5-7-5--5/10-|
-|---------------------------                       -|-------------------------|
Show more