-------------------------------------------------------------------------------
                             MIGHTY - Audacious
-------------------------------------------------------------------------------
Tabbed by: makutoid
Email: makutoid_@hotmail.com

Tuning: Drop D

I've found a bunch of little corrections since I tabbed Version 1 of this, so here's the 
updated version :)

Chorus riff is slightly challenging at first but won't take more than a few minutes to 
nail :)

Verse
  D
e-------------------------|----------------------------|
B-----6------6------5~~~~~|-----6------6------5--5h6p5-|
G---5------5------5-------|---5------5------5----------|
D-0------0------0---------|-0------0------0------------|
A-------------------------|----------------------------|
D-------------------------|----------------------------|
  Bb                        C
e-------------------------|----------------------------|
B-----6------6------5~~~~~|-----6------6------5--5h6p5-|
G---5------5------5-------|---5------5------5----------|
D-8------8------8---------|-8------8------8------------|
A-------------------------|----------------------------|
D-------------------------|----------------------------|

Chorus
   D                       Bb                  C
e|--------------------|--|--------------------|--|
B|-----6-----6-----5--|--|-----6-----6-----5--|--|
G|-----5-----5-----5--|--|-----5-----5-----5--|--|
D|--------------------|x2|--------------------|x2|
A|--------------------|--|--------------------|--|
D|-0-0---0-0---0-0----|--|-8-8---8-8---8-8----|--|

Chorus Riff/Solo (loud part)
   D
e|------------------------------------------------------|--|
B|------------------------------------------------------|--|
G|------------------------------------------------------|--|
D|------------------------------------------------------|x2|
A|------------------------------------------------------|--|
D|-0--0--12--10--0--12--10--0--14--12--0--14--12--0--15-|--|
   Bb                                                    C
e|------------------------------------------------------|--|
B|------------------------------------------------------|--|
G|------------------------------------------------------|--|
D|------------------------------------------------------|x2|
A|-0--0--8--7--0--8--7--0--10--8--0--10--8--0--12-------|--|
D|------------------------------------------------------|--|

You may have noticed, the chords are D, Bb, C, the whole way through :) Using C as a 
bridging chord that is, by the way.

That really is all there is to it. The great thing about this song is that you can put 
in more or less any lead riff you like, it's great to do live for something for the youth 
to shout at, and sounds incredible if the band really nails it.

Enjoy!

Any questions feel free to message me on here or at makutoid_@hotmail.com


************************************

| /   slide up
| \   slide down
| h   hammer-on
| p   pull-off
| ~   vibrato
| +   harmonic
| x   Mute note
| b   Bend
| pb  Pre-bend
| br  Bend release
| pbr Pre-bend release
| brb Bend release bend

************************************
Show more