• Song:

    Get Down

  • Artist:

    Audio Adrenaline

  • Album:

    8 Great Hits

Artist: Audio Adrenaline
Song: Get Down
Tabbed by: rap_sucks

The main chords to remember are  in this order..
D, E, G, D

the picking at the beginning is...
D           E         G       D
---2-----2-|-----2-0-|---2---|---0h2-
-----3-----|---------|-----3-|-------
-------2---|---1-----|-0-----|-2-----
-0---------|-2-------|-------|-------
-----------|---------|-------|-------
-----------|---------|-------|-------

Then the verses are...


----------------------------------------------------------------------
----------------------------8-7----------------------------------8-7--
---44444444---777-------7---7-7-----------------777777-------7---7-7--
---44444444---777-------7---7-7---55555555555---777777-------7---7-7--
---22222222---555---7h9---9-------55555555555---555555---7h9---9------
----------------------------------33333333333-------------------------

Repeat
there is a piano part
Then it D, E, G, D again
next do the verse part twice
and the piano part that has some picking very similar to that at the top
And the course again
Then the bridge is the same chords
chorus, chorus, picking, chorus, chorus, end on D
Show more