• Song:

    Get Down

  • Artist:

    Audio Adrenaline

  • Album:

    8 Great Hits

Artist: Audio Adrenaline
Song: Get Down
Tabber: uberfuber (Max Kao)

The intro doesn’t contain the bass

The Bass Verse doesn’t come in until half-way through the actual verse

G|--------------------------------------
D|--------------------------------------
A|-22-2-2-255-5-5-5---------------------
D|-----------------55-5-5-99-77(6\)-----

Play this at the end of the guitar Pre-Chorus
G|-----------
D|-----------
A|-02525-----
D|-----------

Chorus
G|---------------------------------------------
D|-----------------------------------0-4\------
A|-555-5-5-55----------------------------------
D|-----------222-2-2-22555-5-5-55p0------------

Verse
G|-----------------------
D|-----------------------
A|-22---255------255-----
D|-----------55----------

G|------------------------------------
D|------------------------------------
A|-22-22-255-5-5----------------------
D|---------------55-5-5-99-77(6\)-----

Pre-Chorus
G|---------------------------
D|-------0~------------------
A|-02525---------------------
D|----------2~---5~---0~-----

Chorus
G|---------------------------------------------
D|---------------------------------------------
A|-555-5-5-55--------------------555-5-5-5-----
D|-----------222-2-2-22555-5-5-55--------------

G|--------------------------------------
D|--------------------------------------
A|-555-5-5-55---------------------------
D|-----------222-2-2-22555-5-5-55p0-----

Interlude
G|----------------------------------
D|----------------------------------
A|-----5p0----5p0----5p0----5p0-----
D|-55-----22-----00-----00----------

G|------------------------------------------
D|------------------------------------------
A|-----5p0----5p0----5p0--------------------
D|-55-----22-----00-----00000000000000>-----

Chorus
G|---------------------------------------------
D|---------------------------------------------
A|-555-5-5-55--------------------555-5-5-5-----     2x
D|-----------222-2-2-22555-5-5-55--------------

G|----------------
D|----------------
A|----------------
D|-----(7/12)-----

Bass Break

Last Chorus
G|---------------------------
D|---------------------------
A|---------------------------     3x
D|-00~---22~---55~---00~-----

G|-------------
D|-------------
A|-------------     I’m not completely sure that’s there
D|-(7/12~)-----
Show more