• Song:

    People Like Me

  • Artist:

    Audio Adrenaline

  • Album:

    Some Kind Of Zombie

Band: Audio Adrenaline
Song: People Like Me
Album: Some Kind of Zombie

Intro: 1x
G|----------|
D|----------|
A|----------|
D|--3~--5~--|

Verse: 4x
G|---------------------------------------|
D|---------------------------------------|
A|-----------33333333-55555555-----------|
D|--33333333-------------------33333333--|

Chorus: 2x
G|---------------------------------------|
D|---------------------------------------|
A|-----------22222222-33333333-55555555--|
D|--33333333-----------------------------|

Pause
Intro 1x
Verse 4x
Chorus 2x

Bridge: 
Part 1: 1x
G|---------------------------------------|
D|---------------------------------------|
A|---------------------------------------|
D|--33333333333333335------------------|

Pause

Part 2: 4x
G|---------------------------------------|
D|---------------------------------------|
A|-----------33333333--------------------|
D|--33333333-----------------------------|

Chorus 4x

Fill: 1x
G|---------------------------------------|
D|---------------------------------------|
A|-----3~-5~-3~--------------------------|
D|--3~-----------------------------------|

End: 2x
G|---------------------------------------|
D|---------------------------------------|
A|------3~--5~---------------------------|
D|--3~----------3~-----------------------|
Show more