-------------------------------------------------------------------------------
		 Nintendo 89 - Audio Karate
-------------------------------------------------------------------------------

By:glssjwTx

I forgot to put the 89  on the title but oh well, you were
smartenough to figure that out.

Tuning: Standard ( E A D G )

KEY:  (~) - Let Specified Note Ring

      (/) - Slide Up Or Down

  INTRO/CHORUS                                                             X2
G|--11-----------------------------------------------------------------------|
D|-----11-13-14-13-14-13-11-13-11-9------------------------------------------|
A|-9-------------------------------------------------------------------------|
E|---------------------------------------------------------------------------|
                                                                           X2
G|--------------------------------------------------------------------------|
D|----444------11--222111---11-1--------------------------------------------|
A|-------222444--44------444----42------------------------------------------|
E|-222----------------------------2-----------------------------------------|

  VERSE                                                                    X1
G|---------------------------------------------------------------------------|
D|-22222222222222------------------2222222222222222--------------------------|
A|---------------22----------------------------------------------------------|
E|-----------------4444444444444444------------------------------------------|
                                                                           X2
G|---------------------------------------------------------------------------|
D|-----------------2222222222222222----------------2222222222222222----------|
A|-2222222222222222----------------------------------------------------------|
E|---------------------------------4444444444444444--------------------------|

  BRIDGE
G|---------------------------------------------------------------------------------|
D|-------------------------2-2-2222--6644------------------222-222----6644---------|
A|-2-2-2222-2-2222-----------------22----6677664466-------/---2---2-22---6677664466|
E|-----------------4-4-4444------------------------4444444-------------------------|

G|---------------------------------------------------------------------------|
D|-----64-22/1-22/1--6644----------------------------------------------------|
A|-2222--6---------22------6677664466----------------------------------------|
E|---------------------------------------------------------------------------|

G|---------------------------------------------------------------------------|
D|---2~-----------22222222---------------------------------------------------|
A|-----2~-----------------2222222222222222-----------------------------------|
E|-4~-----44444444-----------------------------------------------------------|

  LAST CHORUS (KEEP REPEATING)
G|---------------------------------------------------------------------------|
D|---6644--------------------------------------------------------------------|
A|-------6677664466----------------------------------------------------------|
E|-44------------------------------------------------------------------------|

  OUTRO
G|---------------------------------------------------------------------------|
D|---2~-----2~---------------------------------------------------------------|
A|-----2~-----2~-------------------------------------------------------------|
E|-4~-----4~-----------------------------------------------------------------|

IF YOU HAVE ANY QUESTIONS COMMENRS CORRECTIONS OR REQUESTS, PLEASE E-MAIL ME
@ fighttheking@netscape.net
===============================================================================
Show more